Hale - Underneath The Waves Chords & Tabs

 

Underneath The Waves Chords & Tabs

Hale Chords & Tabs

Version: 2 Type: Tab 0 ratings
1 star 2 stars 3 stars 4 stars 5 stars
comments

Underneath The Waves Tab

   
Song title    :     Undeneath the Waves
Band/Artist   :     Hale
Tabbed by     :     Angelino Cayabyab Estandian Jr. [aka Ace]
Email         :     acetangent@yahoo.com
contact no    :     09163981421
Date          :     September 3,2005

perfect tab! hehehehe!
para po ito sa mga kaibigan ko po sa college of engineering and architecture jan po sa
saint louis university baguio city.

tuning: standard

note: you will notice that i put so many vertical divisions for
      the intro part.
      that is to help you figure out the plucking pattern.
      marami po kasi nalilito sa intro.
      yun lng po.

intro:

drumer na po bahala dito.

eto ang pra sa guitarista:

     G
e|----------------|-------|----------|----------|----------|
B|-------3p0------|-------|----------|----------|----------|
G|-------------0--|----0--|-------2--|-------2--|-------2--|
D|-----------5----|--0----|--0-------|--0-------|--0-------|
A|----------------|-------|----------|----------|----------|
E|--0h3-----------|-------|----3-----|----3-----|-----3----|
 
     C9
e|---------3-2-----|----------|-----------|
B|-------------3---|-------3--|-------3---|
G|------0----------|--0-------|--0--------| 
D|----3------------|----------|-----------|
A|--2--------------|----2-----|----2------|
E|-----------------|----------|-----------|

     G
e|------------|-------|----------|----------|----------|
B|------------|-------|----------|----------|----------|
G|------------|----2--|-------2--|-------2--|-------2--|
D|------------|--0----|--0-------|--0-------|--0-------|
A|------------|-------|----------|----------|----------|
E|---3--hold--|-------|----3-----|----3-----|-----3----|

     C9
e|---------3-2-----|----------|-----------|
B|-------------3---|-------3--|-------3---|
G|------0----------|--0-------|--0--------| 
D|----3------------|----------|-----------|
A|--2--------------|----2-----|----2------|
E|-----------------|----------|-----------|

verse:

     G
e|------------|-------|----------|----------|----------|
B|------------|-------|----------|----------|----------|
G|------------|----2--|-------2--|-------2--|-------2--|
D|------------|--0----|--0-------|--0-------|--0-------|
A|------------|-------|----------|----------|----------|
E|---3--hold--|-------|----3-----|----3-----|-----3----|

     C9
e|---------3-2-----|----------|-----------|
B|-------------3---|-------3--|-------3---|
G|------0----------|--0-------|--0--------| 
D|----3------------|----------|-----------|
A|--2--------------|----2-----|----2------|
E|-----------------|----------|-----------|
the stars beneath the sky 
they tell me you're a secret 
and everytime i wake up in the morning 
rain is falling down on me 
I feel free 

     G            C9
e|---3-------------3------------|
B|---3-------------3------------|
G|---0--strum------0--strum-----|
D|---0-------------2------------|
A|---2-------------3------------|
E|---3-------------x------------|
you caught me by surprise 
I ask you to believe me 
without a lie 
we'll never have to say or feel we're sorry 
dont say we're sorry 
soon you'll see 

    Am         Bm         C9          C
e|---0----------2----------3----------0----------|
B|---1----------3----------3----------1----------|
G|---2--strum---4--strum---0--strum---0--strum---|
D|---2----------4----------2----------2----------|
A|---0----------2----------3----------3----------|
E|---x----------x----------x----------x----------|
I'm learning 
I'm learning you now 
Stars fading 
free falling into you 

[ Tab from: http://www.guitartabs.cc/tabs/h/hale/underneath_the_waves_tab_ver_2.html ]
    Am         Bm         C9         Em
e|---0----------2----------3----------0----------|
B|---1----------3----------3----------0----------|
G|---2--strum---4--strum---0--strum---0--strum---|
D|---2----------4----------2----------2----------|
A|---0----------2----------3----------2----------|
E|---x----------x----------x----------0----------|
this time I'm sure what I'm looking for 
and that's what I want you to know 
And I won't ever let you....

    Am         Bm         C9
e|---0----------2----------3---------|
B|---1----------3----------3---------|
G|---2--strum---4--strum---0--hold---|
D|---2----------4----------2---------|
A|---0----------2----------3---------|
E|---x----------x----------x---------|
....go let you go.

     G            C9
e|---3-------------3------------|
B|---3-------------3------------|
G|---0--strum------0--strum-----|
D|---0-------------2------------|
A|---2-------------3------------|
E|---3-------------x------------|
Underneath the waves 
I can feel you underneath the waves 

    Am         Bm         C9          C
e|---0----------2----------3----------0----------|
B|---1----------3----------3----------1----------|
G|---2--strum---4--strum---0--strum---0--strum---|
D|---2----------4----------2----------2----------|
A|---0----------2----------3----------3----------|
E|---x----------x----------x----------x----------|
I'm learning 
I'm learning you now 
Stars fading 
free falling into you 

    Am         Bm         C9         Em
e|---0----------2----------3----------0----------|
B|---1----------3----------3----------0----------|
G|---2--strum---4--strum---0--strum---0--strum---|
D|---2----------4----------2----------2----------|
A|---0----------2----------3----------2----------|
E|---x----------x----------x----------0----------|
this time I'm sure what I'm looking for 
and that's what I want you to know 
And I won't ever let you....

    Am         Bm         C9
e|---0----------2----------3---------|
B|---1----------3----------3---------|
G|---2--strum---4--strum---0--hold---|
D|---2----------4----------2---------|
A|---0----------2----------3---------|
E|---x----------x----------x---------|
....go let you go.

Bridge:

   Dsus2       C9
e|--(2)---------3-----------|
B|---3----------3-----------|
G|---2--strum---0--strum----|
D|---0----------2-----------|
A|---x----------3-----------|
E|---x----------x-----------|
It's all been said and done to me 
I know it 
Just let me have a chance to prove my cause 
and i don't know what lies ahead for us 

    Am         Bm         C9
e|---0----------2----------3----------|
B|---1----------3----------3----------|
G|---2--strum---4--strum---0--hold----|
D|---2----------4----------2----------|
A|---0----------2----------3----------|
E|---x----------x----------x----------|
in any road I'll let you come my way 


Chorus:(clean)

    Am         Bm         C9         Em
e|---0----------2----------3----------0----------|
B|---1----------3----------3----------0----------|
G|---2--strum---4--strum---0--strum---0--strum---|
D|---2----------4----------2----------2----------|
A|---0----------2----------3----------2----------|
E|---x----------x----------x----------0----------|
this time I'm sure what I'm looking for 
and that's what I want you to know 
And I won't ever let you....

    Am         Bm         C9
e|---0----------2----------3---------|
B|---1----------3----------3---------|
G|---2--strum---4--strum---0--hold---|
D|---2----------4----------2---------|
A|---0----------2----------3---------|
E|---x----------x----------x---------|
....go let you go.

for outro,do the intro with the following notes:

e|---7h8---8-8-8-8-8-8-7--------------------|
B|-------------------------repeat-----------|
G|-------------------------several-times----|
D|-------------------------then-fade--------|
A|------------------------------------------|
E|------------------------------------------|
And I'm ready for you now 
be ready for me now 
Show me love 


perfect tab! hehehehe!
kung may tanong po kayo,txt nyo po ako sa 09163981421
or ipadala nyo nlng po sa yahoo mail at acetangent@yahoo.com.
pede din po yan sa frndster.
Comments