Hale - Take No Chords & Tabs

 

Take No Chords & Tabs

Hale Chords & Tabs

Version: 4 Type: Tab 0 ratings
1 star 2 stars 3 stars 4 stars 5 stars
comments

Take No Tab

Take No - By Hale
Tabbed by: Raymond Christian C. Salas
blueicedcube@gmail.com

覧覧覧覧覧覧覧覧覧覧覧覧覧覧覧覧覧覧覧覧覧覧覧
Dedicated to sa lahat ng Halers! Hale For All,
All For Hale! You guyz rock! pa add na lang po
sa friendster.... kung may mali po sa tabs paki
email na lang din po! salamat! ^_^
覧覧覧覧覧覧覧覧覧覧覧覧覧覧覧覧覧覧覧覧覧覧覧
salamat dun sa pinsan kong si Mico Matibag dahil
sa kanya nakilala ko ang hale...
覧覧覧覧覧覧覧覧覧覧覧覧覧覧覧覧覧覧覧覧覧覧覧
No To Piracy! Mag limewire na lang kau! ehehe! :P
覧覧覧覧覧覧覧覧覧覧覧覧覧覧覧覧覧覧覧覧覧覧覧


-Standad Tuning-

Intro:

E ---------------------------------------------------------------------|
A  ---0------------------------------------9---------------------------|
D ----------------------------------------------------------------9----|
G -----------------------------------------------------------9-9-------|
B -------------------------------9-----------10-10-9--9----------------|
E ---------9-9-7---7-10-10---------------------------------------------|

Verse:

Effects: Digital Deley

*Note: kung mahirap kayo at walang pambili.. ulitin nyo na
 lang ng 2x ung huli tab... e di may deley na kayo! ehehe!

through hell and
E --------------------------------------------------------------------|
A --------------------------------------------------------------------|
D --------------------------------------------------------------------|
G --------------------------------------------------------------------|
B ---5----------------------------------------------------------------|
E ---7----------------------------------------------------------------|
back...

I.....
E -------------------------------------------------------------------|
A -------------------------------------------------------------------|
D -------------------------------------------------------------------|
G ----------9--------------------------------------------------------|
B ---10-9------------------------------------------------------------|
E -------------------------------------------------------------------|
never was....

and will again...
E -----------------------------------------------------------------|
A -----------------------------------------------------------------|
D -----------------------------------------------------------------|
G ---8-9-----------------------------------------------------------|
B -----------------------------------------------------------------|
E ---------7-------------------------------------------------------|

1st Pre-Chorus

I have failed to see.../These dreams they haunt me back...
Effects: Over Drive/Distortion with Digital Deley

s0- slide out
*pick up and down with rapid speed
[ Tab from: http://www.guitartabs.cc/tabs/h/hale/take_no_tab_ver_4.html ]
E --------------------------------------------------------------|
A --------------------------------------------------------------|
D --------------------------------------------------------------|
G --------------------------------------------------------------|
B ------9-9-9-9-9-9-9s0-----------------------------------------|
E --------------------------------------------------------------|

2nd Pre-Chorus:

Effects: di ko ma distinguish kung anu e..
  pero sure ako na may effects dito...
  pero parang over drive yta to e...

I have failed to see.../These dreams they haunt me back...
E --------------------------------------------------------------|
A --------------------------------------------------------------|
D --------------------------------------------------------------|
G --------------------------------------------------------------|
B ------9/10/9/10/9/10/9/10-------------------------------------|
E --------------------------------------------------------------|


After bass solo:

Effects: Digital Deley
 kung walang deley ulitin nyo na lang ng 4x
 kada note..

Legend:
s0- slide out
 kung di nyo alam kung pano to... pakinggan nyo
 yung cd at malalaman nyo

E ----------------------------------------------------------------|
A ----------------------------------------------------------------|
D ----------------------------------------------------------------|
G ----------------------------------------------------------------|
B ----------------------------------------------------------------|
E -16-------------------------19----------------------19s0--------|


Chorus:

Note: I tremulo nyo to
Tremulo- picking up and down with rapid speed

Legend:
so- slide out
t- tremulo

whoooooo (3x)
E --------------------------------------------------------------|
A --------------------------------------------------------------|
D --------------------------------------------------------------|
G --------------------------------------------------------------|
B --------------------------------------------------------------|
E ---19t-16t-16s0-----------------------------------------------|

whoooooo
E --------------------------------------------------------------|
A --------------------------------------------------------------|
D --------------------------------------------------------------|
G --------------------------------------------------------------|
B --------------------------------------------------------------|
E ---16t-12t-12s0-----------------------------------------------|


Ending:
lagay nyo yung kamay sa fret then strum pero
walang pinipindot... move yung kamay pataas.

*Note: For better results and timing... pakinggan nyo yung cd

sana na enjoy nyo... sensya na kung mejo magulo pa
yung tabs... unang gawa ko kc to e...
Comments