Hale - Kung Wala Ka Chords & Tabs

 

Kung Wala Ka Chords & Tabs

Hale Chords & Tabs

Version: 1 Type: Bass Tab

Kung Wala Ka Bass Tab

Bass Enters at 1:12

G|---------------------------------------------------------------------------|
D|---------------------------------------------------------------------------|
A|----5~-------3~-------7~---------5~---------3~---------7~------------------|
E|---------------------------------------------------------------------------|

Verse 2

G|---------------------------------------------------------------------------|
D|---------------------------------------------------------------------------|
A|-3-33-3---5-55-5---3-33-3---7-77-7---3-33-3---5-55-5---3-33-3---7-77-7--7--|
E|---------------------------------------------------------------------------|

Chorus

G|---------------------------------------------------------------------------|
D|------3-3-3-3-3-3-3-3-5-5-5-5-5-5-5-5-7-7-7-7-7-7-7-7-5-5-5-5-5-5-5-5------|
A|---------------------------------------------------------------------------|
E|---------------------------------------------------------------------------|

G|---------------------------------------------------------------------------|
D|------3-3-3-3-3-3-3-3-5-5-5-5-5-5-5-5-7-7-7-7-7-7-7-7----------------------|
A|------------------------------------------------------3-3-3-3-3-3-3-3-3-3--|
E|---------------------------------------------------------------------------|

Bridge
[ Tab from: http://www.guitartabs.cc/tabs/h/hale/kung_wala_ka_btab.html ]
G|---------------------------------------------------------------------------|
D|--999--12/13\12-12/13\12-12/13\12-12/13\12-12\11-12\10-12\9~---------------|
A|---------------------------------------------------------------------------|
E|---------------------------------------------------------------------------|

G|---------------------------------------------------------------------------|
D|--12/13-12/13-12/13~--12/13-12/13-12/13-12\11-12\10-12\9~--11~-------------|
A|---------------------------------------------------------------------------|
E|---------------------------------------------------------------------------|

G|---------------------------------------------------------------------------|
D|---------------------------------5-5-5-5-5-5-5-5-5-5-7-7-7-7-7-7-7-7-7-7---|
A|-5-5-5-5-5-5-5-5-7-7-7-7-7-7-7-7-------------------------------------------|
E|---------------------------------------------------------------------------|

G|---------------------------------------------------------------------------|
D|---------------------------------5-5-5-5-5-5-5-5-5-5-7-7-7-7-7-7-7-7-7-7---|
A|-5-5-5-5-5-5-5-5-7-7-7-7-7-7-7-7-------------------------------------------|
E|---------------------------------------------------------------------------|

Bass enters again at 3:47

G|--------------|
D|-5---3--------|
A|---------5-3--|
E|--------------|

end
-------------------------

by: reborn/rebornKeZ/z3k