Hale - Kahit Pa Chords & Tabs

 

Kahit Pa Chords & Tabs

Hale Chords & Tabs

Version: 4 Type: Bass Tab

Kahit Pa Bass Tab

Song: Kahit Pa
Band: Hale
Album: Hale
Tabbed by: Joelle Gutierrez

Kahit Pa Bass Tab

Intro:

G|---9---9p8--8---------------||---9---9p8--8---------|
D|--9---9------9-7x--7x-66-7x-||--9---9------9-7x-5/7-|
A|-7---7----------------------||-7---7----------------|
E|----------------------------||----------------------|

Verse:

G|-------9-8---8-------------||-------9-8---8--------------|
D|---9-----------9-7-7x-66-7-||---9-----------9-7-6h77-5/7-|
A|-7---7---------------------||-7---7----------------------|
E|---------------------------||----------------------------|

Pre-chorus:

G|---4/6---6/8-----------||---4/6---6/8--------------------|
D|--4-----6--------------||--4-----6---------------------9-|
A|-2-----4-----xx-2-xx-2-||-2-----4-----22-x-00-x----------|
E|-----------------------||------------------------/77777--|

Chorus:

G|--------------------------------||----------------------------|
D|--------------------------------||-------------------6-6--8-8-|
A|-11\7-7-xx----------------------||-7-7-xx-----------7-7--9-9--|
E|-----------7-7-xx--5-5-6-7-7-xx-||--------7-7-xx-6\5-5--7-7---|
[ Tab from: http://www.guitartabs.cc/tabs/h/hale/kahit_pa_btab_ver_4.html ]
|---------------------------------|
|------------------444-555/17-17x-|
|-7-7-7-xx------------------------|
|----------7-7-7-xx---------------|

Intro:
Verse:
Pre-chorus:
Chorus:

Inrelude:(Kahit pa ikaw lang yan)

G|-------------------------|
D|---4-4---7-7---9-9---9-9-|
A|--4-----7-----9-----9----| repeat
E|-2-----5-----7-----7-----|

Solo:

G|--------------------------------------------/16--|
D|-------------------------------------------------|
A|-------------------------------------------------|
E|-2222222/5555/7777777--2222222/55555/7777--------|

Bridge:

G|---------------9-8h9p8------------------------------------|
D|----------------------9-8h9p8-----------------8h9p8-8h9p8-|
A|-----------------------------9---------------9-----9------|
E|-2-2-/5-5-/7-7-----------------2-2-/5-5-/7-7--------------|

(Basta ikaw pa rin)

G|---------------------------------------------------------------------|
D|---------------------------------------------------------------------|
A|---------------------------------------------------------------------|
E|-2-2-2-2--5-5-5-5--7-7-7-7-7-7-7-7-2-2-2-2--5-5-5-5--7-7-7-7-7-7-7-7-|

Chorus:

Inrelude:(Kahit pa ikaw lang yan)

G|-------------------------|        |----|
D|---4-4---7-7---9-9---9-9-|        |----|
A|--4-----7-----9-----9----| repeat |-7~-|
E|-2-----5-----7-----7-----|        |----|