Hale - Kahit Pa Chords & Tabs

 

Kahit Pa Chords & Tabs

Hale Chords & Tabs

Version: 1 Type: Bass Tab 0 ratings
1 star 2 stars 3 stars 4 stars 5 stars
comments

Kahit Pa Bass Tab

hey guys first tym ko magtab nito at bass pa hehe maganda tong kanta na to 
im kenneth dela cruz from claret 


intro
G|----------------------------------------|  
D|----------------------------------------|
A|---7-----7\6--6h76h7--------------------| 2x
E|-----7h9-------------55555--------------|


verse
G|-----------------------------------------|  
D|-----------------------------------------|
A|---6--6h7-6----7-6-----------------------| 2x
E|------------7-------555------------------|

pre chorus
G|-----------------------------------------|  
D|-----------------------------------------|
A|--2\4-44444--00000-----2222--------------| 2x
E|-----------------------------------------|

chorus
G|-----------------------------------------|  
D|-----------------------------------------|
A|77777--22222--00000--2x--777-222-333-555-| 
E|-----------------------------------------|

intro again

[ Tab from: http://www.guitartabs.cc/tabs/h/hale/kahit_pa_btab.html ]
verse 2
G|-----------------------------------------|  
D|-----------------------------------------|
A|---6--6h7-6----7-6-----------------------| 2x
E|------------7-------555------------------|


pre chorus
G|-----------------------------------------|  
D|-----------------------------------------|
A|--2\4-44444--00000-----2222--------------| 2x
E|-----------------------------------------|


chorus
G|-----------------------------------------|  
D|-----------------------------------------|
A|77777--22222--00000--2x--777-222-333-555-| 
E|-----------------------------------------|

then


G|-----------------------------------------|  
D|-----------------------------------------|
A|-0000-------0000-------------------------| 
E|-------2222-----2222---------------------|

bridge
G|----------------------------------------------------------|  
D|----------------------------------------------------------|
A|------000--222-----000--222------000--222-----000-222--555| 
E|--222----------222-----------222----------222-------------|

e-mail nio nlng ako pagmay comments sa kenneth_john34@yahoo.com add nio na rn aq sa friendster
salamat astig tong kanta \m/ miggy mamimiss ka namin!!
Comments