Hale - Day You Said Goodnight Chords & Tabs

 

Day You Said Goodnight Chords & Tabs

Hale Chords & Tabs

Version: 4 Type: Tab 0 ratings
1 star 2 stars 3 stars 4 stars 5 stars
comments

Day You Said Goodnight Tab

Hale - The day you said goodnight TABS
Tabbed by : Kaye (hot_angel_94@hotmail.com)
 
Hey y'all...errrr...this is my first tab.. n..I guess its just about 
90% accurate...hhehehe well if ther'r eni mistakes don't get all
pissd orrrff aight?!?!. humans MAKE MISTAKES!! Lol aight tc y'all!
J'espere que u guys'll like it... this one's for my girls maddie n macy!!



Intro, Verse 1:

Take me as you are
Push me off the road
The silence I need this time to be with you

e------------------------------------------------------------------------------l
b--------------4-5--2----------------4-5-2-2-2---------------------------------l
g-9-9-9-9-9---4-4--2----9-9-9-9-9---4-4-2-2-2---6-6-4-4-4--2-2-2-2-2----------l
D--9-9-9-9-9---2-2--2----9-9-9-9-9---2-2-2-2-2---6-6-4-4-4--2-2-2-2-2----------l
A--7-7-7-7-7-------------7-7-7-7-7---------------4-4-2-2-2---------------------l
E------------------------------------------------------------------------------l

I'm freezing in the sun
I'm burning in the rain
The silence I'm screaming calling out your name

e------------------------------------------------------------------------------l
b--------------4-5--2-2-2------------------------------------------------------l
g-9-9-9-9-9---4-4--2-2-2--------6-6-4-4-4--2-2-2-2-2--------------------------l
D--9-9-9-9-9---2-2--2-2-2--------6-6-4-4-4--2-2-2-2-2--------------------------l
A--7-7-7-7-7---------------------4-4-2-2-2-------------------------------------l
E------------------------------------------------------------------------------l

Guitar 2:

Take me as u r Push me off the road....bla bla bla Im burning in the rain
e------------------------------------------------------------------------------l
b------------------4--5----2--------------------------4--5----2---------------l
g-----------------------------------------------------------------------------l
D------------------------------------------------------------------------------l
A------------------------------------------------------------------------------l
E------------------------------------------------------------------------------l


Pre-chorus :

Guitar 1:
And I do reside in your light
Put out the fire with me and find

e------------------------------------------------------------------------------l
b------------------------------------------------------------------------------l
g-6-6-6-6-6-2-2-2-2-2--4-4-4-4-4--2-2-2-2-2-----------------------------------l
D--6-6-6-6-6-2-2-2-2-2--4-4-4-4-4--2-2-2-2-2-----------------------------------l
A--4-4-4-4-4------------2-2-2-2-2----------------------------------------------l
E------------------------------------------------------------------------------l






Yeah you lose the sight of your circles
That's what I'll do if we say goodbye

e------------------------------------------------------------------------------l
b------------------------------------------------------------------------------l
g-6-6-6-6-6-2-2-2-2-2--4-4-4-4-4-4-4-4----------------------------------------l
D--6-6-6-6-6-2-2-2-2-2--4-4-4-4-4-4-4-4----------------------------------------l
A--4-4-4-4-4------------2-2-2-2-2-2-2-2----------------------------------------l
E------------------------------------------------------------------------------l

GUITAR 2:

And I do    reside in your light   put out the fire in me and find
e------------------------------------------------------------------------------l
b-----5-4-0-------------------------------2s5-5--5-----0-5-4-0-----------------l
g----------------------6-4----------------------------------------------------l
D--------------------------2---------------------------------------------------l
A------------------------------------------------------------------------------l
E------------------------------------------------------------------------------l


Yeah you lose the sight of your circles That's what I'll do if we say goodbye
e------------------------------------------------------------------------------l
b-------5-4-0--------------------------------------2s5-5-5------7---7----------l
g---------------------------6-4-----------------------------------------------l
D-------------------------------2----------------------------------------------l
A------------------------------------------------------------------------------l
E------------------------------------------------------------------------------l


Chorus :
Guitar 1:

To be is all I got to be
And all that I see
And all that I need this time
e------------------------------------------------------------------------------l
b------------------------------------------------------------------------------l
g-9-9-9-9-9--4-4-4-4-4--2-2-2-2-2--4-4-4-4-4----------------------------------l
D--9-9-9-9-9--4-4-4-4-4--2-2-2-2-2--4-4-4-4-4----------------------------------l
A--7-7-7-7-7--2-2-2-2-2-------------2-2-2-2-2----------------------------------l
E------------------------------------------------------------------------------l

To be, the life you gave me
The day you said goodnight
e------------------------------------------------------------------------------l
b------------------------------------------------------------------------------l
g-9-9-9-9-9--4-4-4-4-4--2-2-2-2-2---------------------------------------------l
D--9-9-9-9-9--4-4-4-4-4--2-2-2-2-2---------------------------------------------l
A--7-7-7-7-7--2-2-2-2-2--------------------------------------------------------l
E------------------------------------------------------------------------------l

Guitar 2:

To be   is all I gotta be       And all that I see And all that I need this time
e------------------------------------------------------------------------------l
b4h5---------------4h54h5---------------------------------------------------l
g-----------------------------------------------------------------------------l
D------------------------------------------------------------------------------l
A------------------------------------------------------------------------------l
E------------------------------------------------------------------------------l


To be, the life you gave me       The day you said goodnight
e------------------------------------------------------------------------------l
b4h5----------------4h54h5---------------------------0----------------------l
g-----------------------------------------------------------------------------l
D------------------------------------------------------------------------------l
A------------------------------------------------------------------------------l
E------------------------------------------------------------------------------l


Verse 2:

The calmness in your face 
That I see through the night
The warmth of your lies pressing onto us

e------------------------------------------------------------------------------l
b--------------4-5--2----------------4-5-2-2-2---------------------------------l
g-9-9-9-9-9---4-4--2----9-9-9-9-9---4-4-2-2-2---6-6-4-4-4--2-2-2-2-2----------l
D--9-9-9-9-9---2-2--2----9-9-9-9-9---2-2-2-2-2---6-6-4-4-4--2-2-2-2-2----------l
A--7-7-7-7-7-------------7-7-7-7-7---------------4-4-2-2-2---------------------l
E------------------------------------------------------------------------------l


You didn't ask me why
I never would have never known
Living this it's falling down

e------------------------------------------------------------------------------l
b--------------4-5--2-2-2------------------------------------------------------l
g-9-9-9-9-9---4-4--2-2-2--------6-6-4-4-4--2-2-2-2-2--------------------------l
D--9-9-9-9-9---2-2--2-2-2--------6-6-4-4-4--2-2-2-2-2--------------------------l
A--7-7-7-7-7---------------------4-4-2-2-2-------------------------------------l
E------------------------------------------------------------------------------l

Guitar 2:
[ Tab from: http://www.guitartabs.cc/tabs/h/hale/day_you_said_goodnight_tab_ver_4.html ]
The calmness in your face....bla bla bla you didn't ask me why
e------------------------------------------------------------------------------l
b---------4--5----2-------------------------4--5----2-------------------------l
g-----------------------------------------------------------------------------l
D------------------------------------------------------------------------------l
A------------------------------------------------------------------------------l
E------------------------------------------------------------------------------l


Pre-chorus :

Guitar 1:
And I do reside in your light
Put out the fire with me and find

e------------------------------------------------------------------------------l
b------------------------------------------------------------------------------l
g-6-6-6-6-6-2-2-2-2-2--4-4-4-4-4--2-2-2-2-2-----------------------------------l
D--6-6-6-6-6-2-2-2-2-2--4-4-4-4-4--2-2-2-2-2-----------------------------------l
A--4-4-4-4-4------------2-2-2-2-2----------------------------------------------l
E------------------------------------------------------------------------------l





Yeah you lose the sight of your circles
That's what I'll do if we say goodbye

e------------------------------------------------------------------------------l
b------------------------------------------------------------------------------l
g-6-6-6-6-6-2-2-2-2-2--4-4-4-4-4-4-4-4----------------------------------------l
D--6-6-6-6-6-2-2-2-2-2--4-4-4-4-4-4-4-4----------------------------------------l
A--4-4-4-4-4------------2-2-2-2-2-2-2-2----------------------------------------l
E------------------------------------------------------------------------------l

GUITAR 2:

And I do    reside in your light   put out the fire in me and find
e------------------------------------------------------------------------------l
b-----5-4-0-------------------------------2s5-5--5-----0-5-4-0-----------------l
g----------------------6-4----------------------------------------------------l
D--------------------------2---------------------------------------------------l
A------------------------------------------------------------------------------l
E------------------------------------------------------------------------------l

Yeah you lose the sight of your circles That's what I'll do if we say goodbye
e------------------------------------------------------------------------------l
b-------5-4-0--------------------------------------2s5-5-5------7---7----------l
g---------------------------6-4-----------------------------------------------l
D-------------------------------2----------------------------------------------l
A------------------------------------------------------------------------------l
E------------------------------------------------------------------------------l



Chorus :

Guitar 1:

To be is all I got to be
And all that I see
And all that I need this time
e------------------------------------------------------------------------------l
b------------------------------------------------------------------------------l
g-9-9-9-9-9--4-4-4-4-4--2-2-2-2-2--4-4-4-4-4----------------------------------l
D--9-9-9-9-9--4-4-4-4-4--2-2-2-2-2--4-4-4-4-4----------------------------------l
A--7-7-7-7-7--2-2-2-2-2-------------2-2-2-2-2----------------------------------l
E------------------------------------------------------------------------------l

To be, the life you gave me
The day you said goodnight
e------------------------------------------------------------------------------l
b------------------------------------------------------------------------------l
g-9-9-9-9-9--4-4-4-4-4--2-2-2-2-2---------------------------------------------l
D--9-9-9-9-9--4-4-4-4-4--2-2-2-2-2---------------------------------------------l
A--7-7-7-7-7--2-2-2-2-2--------------------------------------------------------l
E------------------------------------------------------------------------------l








Guitar 2:

To be   is all I gotta be       And all that I see And all that I need this time
e------------------------------------------------------------------------------l
b4h5---------------4h54h5---------------------------------------------------l
g-----------------------------------------------------------------------------l
D------------------------------------------------------------------------------l
A---------------------------------------------------------- 

To be, the life you gave me       The day you said goodnight
e------------------------------------------------------------------------------l
b4h5----------------4h54h5---------------------------0----------------------l
g-----------------------------------------------------------------------------l
D------------------------------------------------------------------------------l
A------------------------------------------------------------------------------l
E------------------------------------------------------------------------------l


Bridge:

If you could only know me 
Like your prayers at night
e------------------------------------------------------------------------------l
b44-4-4-4--5-5-5-5-5---------------------------------------------------------l
g4-4-4-4-4--4-4-4-4-4--2-2-2-2-2-2-2-2-2-2------------------------------------l
D-2-2-2-2-2--2-2-2-2-2--2-2-2-2-2-2-2-2-2-2------------------------------------l
A------------------------------------------------------------------------------l
E------------------------------------------------------------------------------l


And everything between you and me
Will be all right
e------------------------------------------------------------------------------l
b44-4-4-4--5-5-5-5-5---------------------------------------------------------l
g4-4-4-4-4--4-4-4-4-4--2-2-2-2-2--4-4-4-4-4-----------------------------------l
D-2-2-2-2-2--2-2-2-2-2--2-2-2-2-2--4-4-4-4-4-----------------------------------l
A----------------------------------2-2-2-2-2-----------------------------------l
E------------------------------------------------------------------------------l


Chorus:
To be is all I got to be
And all that I see
And all that I need this time
e------------------------------------------------------------------------------l
b------------------------------------------------------------------------------l
g-9-9-9-9-9--4-4-4-4-4--2-2-2-2-2--4-4-4-4-4----------------------------------l
D--9-9-9-9-9--4-4-4-4-4--2-2-2-2-2--4-4-4-4-4----------------------------------l
A--7-7-7-7-7--2-2-2-2-2-------------2-2-2-2-2----------------------------------l
E------------------------------------------------------------------------------l

To be, the life you gave me
The day you said goodnight
e------------------------------------------------------------------------------l
b------------------------------------------------------------------------------l
g-9-9-9-9-9--4-4-4-4-4--2-2-2-2-2---------------------------------------------l
D--9-9-9-9-9--4-4-4-4-4--2-2-2-2-2---------------------------------------------l
A--7-7-7-7-7--2-2-2-2-2--------------------------------------------------------l
E------------------------------------------------------------------------------l


Bridge 2:

She's already taken
She's already taken
She's already taken me
She's already taken
She's already taken me
e------------------------------------------------------------------------------l
b-5-4----5-4----------------5-4----5-4----------------------------------------l
g-4-4-2--4-4-2--4-4-4-4-4---4-4-2--4-4-2----4-4-4-4-4--2----------------------l
D--2-2-2--2-2-2--4-4-4-4-4---2-2-2--2-2-2----4-4-4-4-4-2----------------------l
A----------------2-2-2-2-2-------------------2-2-2-2-2-------------------------l
E------------------------------------------------------------------------------l

Outro: (solo)

e--4-4-5-5-0------------------7------------------------------------------------l
b----------4-4-5-5-0---------------------------------------------------------l
g-----------------------------------------------------------------------------l
D------------------------------------------------------------------------------l
A------------------------------------------------------------------------------l
E------------------------------------------------------------------------------l
Comments