Hale - Day You Said Goodnight Chords & Tabs

 

Day You Said Goodnight Chords & Tabs

Hale Chords & Tabs

Version: 2 Type: Bass Tab 0 ratings
1 star 2 stars 3 stars 4 stars 5 stars
comments

Day You Said Goodnight Bass Tab

Song Name   : Day you said goodnight
Band Name   : Hale
Tabbed By   : jdimpas@lexmark.com (Jan Michael Dimpas)
              Center for Industrial Technology & Enterprise(CITE)
 
            ----------------------------------
                 DAY YOU SAID GOODNIGHT
            ----------------------------------

     I get this with a few minutes, any comments will be accepted.

     This is for Busted Fuse Band in CITE. (Mr.I,Jan,Baroy,Bosing,Ariel)

     Comments Email me: jdimpas@lexmark.com (www.lexmark.com)

     Print this page using Lexmark Printers.

Standard Tunning:

Intro: 

G ----------------------|
D ----------------------|
A ---7--7p6-------------|
E ----------7--5--------|

Verse I

G ----------------------|
D ----------------------|
A ---7--7p6-------------|
E ----------7--5--------|

Take me as you are,Push me off the road


G ---------------------------------|
D ---------------------------------|
A ---------------------------------|
E ---5h7h99------7--5--7h9--5------|


The sadness I need this time to be with you


G ----------------------|
D ----------------------|
A ---7--7p6-------------|
E ----------7--5--------|

I'm freezing in the sun, I'm burning in the rain

G ---------------------------------|
D ---------------------------------|
A ---------------------------------|
E ---5h7h99------7--5--7h9--5------|


The silence I'm screaming, Calling out your name


Refrain:


G --------------------------------------------|
D ------11------------------------------------|
A ----11--11----------------------------------|
E ---9----------0-5-5-----0-2-2-----0-7-7-----|

And I do
Reside in your light
Put out the fire with me and find

G --------------------------------------------|
D ------11------------------------------------|
A ----11--11----------------------------------|
E ---9----------0-5-5-----0-2-2-----0-7-7-----|

Yeah you lose the side of your circles
That's what I'll do if we say goodbye..


Chorus:

[ Tab from: http://www.guitartabs.cc/tabs/h/hale/day_you_said_goodnight_btab_ver_2.html ]
G -----------------------------------------------------------|
D --------------------------------------------5h6------------|
A --77777777--------------------------------------8-6-5------|
E -------------07777777-----02222222----5555------------6-5--|

To be is all I got to be
And all that I see
And all that I need this time


G ---------------------------------------------------|
D ---------------------------------------6--5--------|
A --77777777-----------------------------------7-----|
E -------------07777777-----02222222/5---------------|


To me the life you gave me
The day you said goodnight...

Verse II.

(Same us Verse I)

The calmness in your face
That I see through the night
The warmth of your light is pressing unto us
You didn't ask me why
I never would have known
Oblivion is falling down

Bridge:


G --------------------------------------------------------|
D --------------------------------------------------------|
A --------------------------------------------------------|
E --999999999-----55555555------22222222----77777777------|


If you could only know me
Like your prayers at night


G --------------------------------------------------------|
D --------------------------------------------------------|
A --------------------------------------------------------|
E --999999999-----55555555------22222222/7----------------|

then everything between you and me will be alright..


Repeat Chorus(no bass)--(acoustic)



G -----------------------------------------------------------|
D --------------------------------------------5h6------------|
A --77777777--------------------------------------8-6-5------|
E -------------07777777-----02222222----5555------------6-5--|


She's already taken
She's already taken
She's already taken me

G ------------------------------------------------------|
D ------------------------------------------------------|
A --77777777--------------------------------------------|
E -------------07777777-----02222222----55555555--------|

She's already taken
She's already taken me



G ------------------------------------|
D ------------------------------------|
A ----7-6-7------7/2--0--2------------|
E --------------------------0-5-5-----|


                         The day you said goodnight....


 Email Me:: or See me at my friendster: janmichael_dimpas2004 Yahoo Mail
Comments