Hale - Day You Said Goodnight Chords & Tabs

 

Day You Said Goodnight Chords & Tabs

Hale Chords & Tabs

Version: 1 Type: Bass Tab 0 ratings
1 star 2 stars 3 stars 4 stars 5 stars
comments

Day You Said Goodnight Bass Tab

hale
the day you said goodnight

intro
verse:
G|-----------------------------------|
D|-----------------------------------|    2x
A|--7-----------4--------------------|
E|-------7/-5-------7/5--------------|

pre-chorus
G|-----------------------------------|
D|------11---------------------------|     2X
A|----11--10~--------9-99------------|
E|--9----------7-77--------5\7-------|

chorus:
G|-----------------------------------|
D|-----------------------------------|
A|--7-77-7------9-99-9---------------|
E|--------7-77-7------5/-7-----------|
[ Tab from: http://www.guitartabs.cc/tabs/h/hale/day_you_said_goodnight_btab.html ]
G|-----------------------------------|
D|-----------------------------------|
A|--7-77-7------9-99-9-11/-12--------|
E|--------7-77-7---------------------|

bridge
G|-----------------------------------|
D|-----------------------------------|
A|-4-4-4-4-4-------------------------|
E|-----------7-7-7-7-7-5-5-5-5-------|

G|-----------------------------------|
D|-----------------------------------|
A|-4-4-4-4---------9-9-9-9-----------|
E|---------7-7-7-7---------5~~~~~~~--|

first tab ko po ito kaya kung may mali email niyo nalang me at hunt3r90@yahoo.com! lugaw
rules and michy ingat ka lagi ah!!
Comments