Hale - Broken Sonnet Chords & Tabs

 

Broken Sonnet Chords & Tabs

Hale Chords & Tabs

Version: 6 Type: Tab 0 ratings
1 star 2 stars 3 stars 4 stars 5 stars
comments

Broken Sonnet Tab

   
Broken Sonnet - Hale
(Cool song crappy video hehehe)
tabbed by Dey Soriano

jer e2 na ung favorite natin hehe... aus b?
pagpaxnxhn nyo na 2ng una qng tab,,, perstaym eh...
ope u lyk it.... >> S.I.L.D. (Bandtrip)<< bAHiSta >> 23 <<



INTRO
|----------------------------------------------------------------------3-|
|----------------------------------------------------------------------3-|
|----0---------0---------0---------0---------0---------0---------0-----0-|
|--0-----0---0-----0---0-----0---0-----0---0-----0---0-----0---0-------2-|
|7-----9---7-----9---10----10--10----9---5-----5---5-----2---3-----3---2-|
|----------------------------------------------------------------------0-|  

VERSE


|------------------------------------------------------------------------||
|------------------------------------------------------------------------||
|----0---------0---------0---------0---------0---------0---------0-----0-||
|--0-----0---0-----0---0-----0---0-----0---0-----0---0-----0---0-----0---||
|7-----9---7-----9---10----10--10----9---5-----5---5-----2---3-----3-----||
|------------------------------------------------------------------------|| repeat 4x

PRE-CHORUS
 
 Am - Bm - C
 Em - F#m - C

CHORUS 
[ Tab from: http://www.guitartabs.cc/tabs/h/hale/broken_sonnet_tab_ver_6.html ]
(powerchords preffered)
Em G  D    G   C           C	     Em 
   i leave my fears behind coz 2nyt....

--OR--

Em D C 


VERSE 2

 -2-3-2-3-----|
 -3-3-3-3-----|
 -0-0-0-0-----|
 -x-x-x-x-----|
 -x-x-x-x-----|
 -x-x-x-x-----|
clock on the wall says three thirty nine a.m....

BRIDGE

G D Em C
Em D C

OUTRO

|------------------------------------------------------------------------|
|------------------------------------------------------------------------|
|----0---------0---------0---------0---------0---------0---------0-----0-|
|--0-----0---0-----0---0-----0---0-----0---0-----0---0-----0---0-----0---|
|7-----7---7-----9---10----10--10----9---5-----5---5-----2---3-----3-----|
|------------------------------------------------------------------------|

|--------------------------------------------------------------|
|--------------------------------------------------------------|0
|----0---------0---------0---------0---------0---------0-------|
|--0-----0---0-----0---0-----0---0-----0---0-----0---0-----0---|
|0-----0---2-----2---3-----3---5-----5---7-----7---9-----9---10|0
|--------------------------------------------------------------|

 maybe    im just     not   the one      for              you
Comments