Hale - Broken Sonnet Chords & Tabs

 

Broken Sonnet Chords & Tabs

Hale Chords & Tabs

Version: 2 Type: Tab 0 ratings
1 star 2 stars 3 stars 4 stars 5 stars
comments

Broken Sonnet Tab

   
##################################################################################
# This file is the author's own work and represents their interpretation of the  #
# song. You may only use this file for private study, scholarship, or research.  #
##################################################################################

Song:Broken Sonnet
Artist: Hale
Tabbed: June 5 2005
Transcribe by: Erwin Serrano Quezon City/Pangasinan 
                 (winserrano@yahoo.com)


what a great song" i really love this song thats why im inspired to make a tab of it. Astig din ung band, idol ko sila!!
mga dudes try nyu to, d ko alam ko ng tama to. medyu rush po kc, almost 1 hour bago ko
natapos.sana po magustuhan nyu. vote po!



chords pattern

     Em  E11  D  C9   G Am1   Bm  D/F#
E|----3---2---2---3---3---0---2---2--------------|
B|----0---3---3---3---3---0---3---3--------------|
G|----0---0---2---0---0---2---4---2--------------|
D|----2---2---0---2---0---2---4---0--------------|
A|----2---2---X---3---2---0---2---0--------------|
E|----0---0---X---X---3---X---X---2--------------|


\-slide
h-hummer
hr-harmonic
tp-top

intro:  Em G D C9

pre-chorus    Am  Bm  C9 Em  D  C9

chorus:

 guitar II  pattern:   
E|---7-------x-------x-x---x----------------------------------------|
B|---7----8--x----8--3-3-\-x---repeat 2x----------------------------|
G|---9--9----7--7----5-5-\-7----------------------------------------|
D|---9--9----7--5----5-5-\-7----------------------------------------|
A|---7--7----5--5----3-3-\-5----------------------------------------|
E|---0--0----x--x----x-x---x----------------------------------------|  


"do this pattern in the 1st stanza"     
E|---2-2--2-2--2-2---3-3--3-3--3-3---2-2--2-2--2-2---3-3--3-3--3-3---|
B|---3-3--3-3--3-3---3-3--3-3--2-2---3-3--3-3--3-3---3-3--3-3--3-3---|
G|---0-0--0-0--0-0---0-0--0-0--0-0---2-2--2-2--2-2---0-0--0-0--0-0---|
D|---2---------------0---------------0---------------2---------------|2X
A|---2---------------2-------------------------------3---------------|
E|---0---------------3-----------------------------------------------|


Do chords verse 1

Do chords pre-chorus:

    do this at the last word of the 1st stanza  
[ Tab from: http://www.guitartabs.cc/tabs/h/hale/broken_sonnet_tab_ver_2.html ]
E|---------10hr---14hr-15hr-14hr-14hr-15hr----14hr-15hr----14hr-15hr---|
B|------10hr---------------------15hr-------15hr-------15hr------------|
G|---------------------------------------------------------------------|
                    
i don't care what they say
      
E|---------------------------------------------------------------------|
B|------7tp-7tp----------------------- --------------------------------|
G|------7tp-7tp-----do it 4X-------------------------------------------|
D|--5h7----------------------------------------------------------------|
A|---------------------------------------------------------------------|
E|---------------------------------------------------------------------|
i don't care what they do

do chords chorus:

bridge


Adlib 1:

      
E|---------------------------------5-7-8-8\10-10\12--15----------------|
B|-----7h8---7\8------------5-7-8-----------------------15-------------|
G|---9-----7-----5----5--7---------------------------------------------|
D|---9-----------------------------------------------------------------|
A|---7-----------------------------------------------------------------|
E|---------------------------------------------------------------------|

      
E|----------15-15\17--15-----------------------------------------------|
B|--13\12------------------------------- ------------------------------|
G|---------------------------------------------------------------------|
D|---------------------------------------------------------------------|
A|---------------------------------------------------------------------|
E|---------------------------------------------------------------------|

same chords of chorus: 


Adlib 2:

      
E|---------------------------------------10----------------------------|
B|---8~~~~~--7h8-8-8^7^8---8-7-8--7h8-10-------------------------------|
G|-----------------------7---------------------------------------------|
D|---------------------------------------------------------------------|
A|---------------------------------------------------------------------|
E|---------------------------------------------------------------------|


======================================================
Outro: Em  G  D  C9  Em Am  Bm  C  D  Em  D/F#  Gpause
=======================================================



For any comments, you can send your messages at (winserrano@yahoo.com)
sa friendster ko. or u can also mek ur call or txt sa (09223006427)     
Comments