Hale - Broken Sonnet Chords & Tabs

 

Broken Sonnet Chords & Tabs

Hale Chords & Tabs

Version: 1 Type: Tab 2 ratings
1 star 2 stars 3 stars 4 stars 5 stars
comments

Broken Sonnet Tab

   
--------------------------------------------------------------------
if you don't like this song, screw you :)) OPM!!! if it's
wrong, give me a break, i'm 15.email me klaskycsupo21@yahoo.com lol.
the riffs are there na..
it's for sure not 100% accurate but it's close enough.. i think.
this is 100% complete...
--------------------------------------------------------------------

Broken Sonnet - Hale
tabbed by: blah!!
Standard Tuning: EADGBE

Intro
Em-G-D-C9
e|--------------------------------------------------3----------|
B|--------------------------------------------------3----------|
G|----0---0-----0----0----0----0-----0---0----------0----------|
D|---0-0-0-----0-0--0----0-0--0-----0-0-0-0---------2----------|
A|--7---7--9-10---10--9-----------------------------2----------|
E|---------------------10---10---7-8---8------------0----------|

Verse
Em-G-D-C9
Em-G-D-C9
Em-G-D-C9
Em-G-D-C9
e|-----------------------------------------------------------------|
B|-----------------------------------------------------------------|
G|-----0-------0-------0-------0-------0-------0-------0-------0---| 4x
D|--2-----2-2-----4-5-----5-5-----4-0-----0-0---------0-0-----0-0--|
A|----5-5-----5-------5-5-----5-------5-5-----5---2-3-----3-3------|
E|-----------------------------------------------------------------|

Pre-Chorus
A-Bm-C9
Em-D-C9
e|--------------------------------------------------|
B|--------------------------------------------------|
G|-----0-----0-----0-----0-----0-----0-----0-----0--|
D|----0-----0-----0-----0-----0-----0-----0-----0---|
A|--0-----0-----2-----2-----3-----3-----3-----3-----|
E|--------------------------------------------------|

e|--------------------------------------------------|
B|--------------------------------------------------|
G|-----0--7--0-----0-----0-----0-----0-----0-----0--|
D|----0-----------0-----0-----0-----0-----0-----0---|
A|--7-----------5-----5-----3-----3-----3-----3-----|
E|--------------------------------------------------|

Chorus
Em-D-C9
Em-D-C9
e|--------------------------------------------------|
B|--------------------------------------------------|
G|-----7/9--7--7/9--555555--5/7-----7/9--7--7/9--5--|
D|--2--7/9--7--7/9--555555--5/7--2--7/9--7--7/9--5--|
A|--2--5/7--5--5/7--333333--3/5--2--5/7--5--5/7--3--|
E|--0----------------------------0------------------|

Intro
Em-G-D-C9
e|-----------------------------------------------------------------|
B|-----------------------------------------------------------------|
G|-----0-------0-------0-------0-------0-------0-------0-------0---|
D|--2-----2-2-----4-5-----5-5-----4-0-----0-0---------0-0-----0-0--|
A|----5-5-----5-------5-5-----5-------5-5-----5---2-3-----3-3------|
E|-----------------------------------------------------------------|






Verse
D-C9-D-C9
Em-G-D-C9
Em-G-D-C9
Em-G-D-C9
e|-----------------------------------------------------------------|
B|-----------------------------------------------------------------|
G|-----0-------0-------0-------0-------0-------0-------0-------0---| 3x
D|--2-----2-2-----4-5-----5-5-----4-0-----0-0---------0-0-----0-0--|
A|----5-5-----5-------5-5-----5-------5-5-----5---2-3-----3-3------|
E|-----------------------------------------------------------------|
[ Tab from: http://www.guitartabs.cc/tabs/h/hale/broken_sonnet_tab.html ]
Pre-Chorus
A-Bm-C9
Em-D-C9
harmonics                  if you don't like harmonics.. hmm.
e|-------------------|     e|--3-2-2-3---2-3----|
B|----7-7-----7------|     B|----------3-----3--|
G|--5-----5-7---5-7--|     G|-------------------|
D|-------------------|     D|-------------------|
A|-------------------|     A|-------------------|
E|-------------------|     E|-------------------|

e|---------------------------------|
B|---------------------------------|
G|----7-7----7-7----7-7----7-7--5--|
D|---7------7------7------7-----5--|
A|--7------7------5------5------3--|
E|---------------------------------|

Chorus
Em-D-C9
Em-D-C9
e|--------------------------------------------------|
B|--------------------------------------------------|
G|-----7/9--7--7/9--555555--5/7-----7/9--7--7/9--5--|
D|--2--7/9--7--7/9--555555--5/7--2--7/9--7--7/9--5--|
A|--2--5/7--5--5/7--333333--3/5--2--5/7--5--5/7--3--|
E|--0----------------------------0------------------|

Bridge
G-D-Em-C9
Em-D-C9

Ad-Lib
1st adlib
-----------------------------------------15-10-10-8-7-15-17-15-|
--------------------------10-12-13-15-17-----------------------|
-s12-7-12-5-5-5-7-9-11-12--------------------------------------|
---------------------------------------------------------------|
---------------------------------------------------------------|
---------------------------------------------------------------|


Chorus
Em-D-C9
Em-D-C9
e|--------------------------------------------------|------------|
B|--------------------------------------------------|------------|
G|-----7/9--7--7/9--555555--5/7-----7/9--7--7/9--5--|--5-5-5--7--|
D|--2--7/9--7--7/9--555555--5/7--2--7/9--7--7/9--5--|--5-5-5--7--|
A|--2--5/7--5--5/7--333333--3/5--2--5/7--5--5/7--3--|--3-3-3--5--|
E|--0----------------------------0------------------|------------|

Bridge
G-D-Em-C9
Em-D-C9
e|----------------------------------|---------|
B|----------------------------------|---------|
G|-------777--999--12-11------------|---------|
D|--555--777--999--12-12--9/10--10--|--10/12--|
A|--555--555--777--10-10--9/10--10--|--10/12--|
E|--333-------000---------7/8---8---|--8-/10--|

e|----------------------------------|
B|----------------------------------|
G|--999--12-11--777--12-11--101010--|
D|--999--12-12--777--12-12--101010--|
A|--777--10-10--555--10-10--8-8-8---|
E|--000-----------------------------|


Ad-Lib
2nd adlib
-----------------------------------------------------------|
--------------------------------------------15-------------|
---s12-12-12-11-7-7-11-11-s12-12-12-11-s12-----------------|
-----------------------------------------------------------|
-----------------------------------------------------------|
-----------------------------------------------------------|


Outro (plucked)
Em-G-D-C9
Am-Bm-C9-D-Em-F#m-G (Bass)
e|-----------------------------------------------------------|
B|-----------------------------------------------------------|
G|----0---0----0----0---0---0----0---0---0---0---0----0------|
D|---0-0-0-0--0-0--0-0-0-0-0----0-0-0-0-0-0-0-0-0-0--0-0-----|
A|--------------------7---7----------------------------------|
E|--8---8---10---10----------7-8---8---5---7---8---10--------|

e|-----------------------------------------------------------|
B|-----------------------------------------------------------|
G|----0---0--------------------------------------------------|
D|---0-0-0-0-------------------------------------------------|
A|--7---9---10-----------------------------------------------|
E|-----------------------------------------------------------|
End


Chords (Key of G)      Power Chords
Em : 022000 or 022033  022XXX
G  : 320033            355XXX
D  : XX0232            X577XX
C9 : X32033            X355XX
Am : X02033            577XXX or X022XX
Bm : X20033            X244XX

ASTIG dba!!!!
Comments