Hale - Blu?? Sky Chords & Tabs

 

Blu?? Sky Chords & Tabs

Hale Chords & Tabs

Version: 1 Type: Tab 0 ratings
1 star 2 stars 3 stars 4 stars 5 stars
comments

Blu?? Sky Tab

Blue sky
Hale

tabbed by: me! aPriL hErNaNdEz :) \m/

intro strumming with this:
e|-----------------------------------------------------|
B|-----------------------------------------------------|
G|-----------------------------------------------------|
D|---9-------8--------7-------X------------------------|
A|---9-------9--------7-------7------------------------|
E|---7-------7--------5-------7------------------------|

Lead part of intro:
e|-----------------------------------------------------|
B|-----------------------------------------------------|
G|-----------------------------------------------------|
D|-----------------------------------------------------|   2x
A|----7/9---7p6--7p6-----7p6---7p6-----7p6---7/9-9-----|
E|--------------------7-------------7------------------|
[ Tab from: http://www.guitartabs.cc/tabs/h/hale/blu_sky_tab.html ]
verse: the same as intro
e|-----------------------------------------------------|
B|-----------------------------------------------------|
G|-----------------------------------------------------|
D|---9-------8--------7-------X------------------------|
A|---9-------9--------7-------7------------------------|
E|---7-------7--------5-------7------------------------|

chorus: the same also as itro and verse
e|-----------------------------------------------------|
B|-----------------------------------------------------|
G|-----------------------------------------------------|
D|---9-------8--------7-------X------------------------|
A|---9-------9--------7-------7------------------------|
E|---7-------7--------5-------7------------------------|

last part, ending or "outro"
e|-----------------------------------------------------|
B|-----------------------------------------------------|
G|-----4/9--9---9----8----6-----4----------------------|   9x
D|-----------------------------------------------------|
A|-----------------------------------------------------|
E|-----------------------------------------------------|

sori if there's something lacking like the adlibs in between the verses cause im still 
sure and its still not yet finished. pls. rate! :) hi to my bandmates...fretless...:)
Comments