Hale - Bent Down Chords & Tabs

 

Bent Down Chords & Tabs

Hale Chords & Tabs

Version: 1 Type: Tab 0 ratings
1 star 2 stars 3 stars 4 stars 5 stars
comments

Bent Down Tab

Bent Down
Hale

tabbed by: MJ Magpayo

Intro:

E|---------------------------------------|
B|--9---9----9---9----9---9----9----6----|
G|----9---9----9---9----9---9----9----9--| 2x
D|---------------------------------------|
A|--7--------6-----------------7----5----|
E|--------------------9------------------|

Verse I:

E|--------------------------------------|
B|--9---9----9---9----9---9----9---9----|
G|----9---9----9---9----9---9----9---9--|
D|--------------------------------------|
A|--7--------6--------------------------|
E|--------------------9--------7--------|
  my conscience is hurting my ear

E|--------------------------------------|
B|--9---9----9---7----------------------|
G|----9---9----9---9--------9--------9--|
D|--------------------9-9-9----9-9-9----|
A|--7--------7--------------------------|
E|--------------------9--------7--------|
  but I'm happy as long as you are
 
E|--------------------------------------|
B|--9---9----9---7----------------------|
G|----9---9----9---9--------9--------9--|
D|--------------------9-9-9----9-9-9----|
A|--7--------7--------------------------|
E|--------------------9--------7--------|
  i hide if I can

E|--------------------------------------|
B|--9---9----9---7----------------------|
G|----9---9----9---9--------9--------9--|
D|--------------------9-9-9----9-9-9----|
A|--7--------7--------------------------|
E|--------------------9--------7--------|
  i don't care where I stand

E|--------------------------------------|
B|--------------------------7--7---7----|
G|--9-----9--9---9-9--9---9------9---9--|
D|----9-9------9--------9---------------|
A|--7--------6--------------------------|
E|--------------------9--------7--------|
  as long as you are bent down
[ Tab from: http://www.guitartabs.cc/tabs/h/hale/bent_down_tab.html ]
DO INTRO PATTERN
VERSE

Chorus:

E|--------------------------------------|
B|--9---9----9---9----9---9----9---9----|
G|----9---9----9---9----9---9----9---9--|
D|--------------------------------------|
A|--7--------6--------------------------|
E|--------------------9--------7--------|
  she feels

E|--------------------------------------|
B|--9---9----9---7----------------------|
G|----9---9----9---9--------9--------9--|
D|--------------------9-9-9----9-9-9----|
A|--7--------7--------------------------|
E|--------------------9--------7--------|
  im laid out for everything here

E|--------------------------------------|
B|--9---9----9---9----9---9----9---9----|
G|----9---9----9---9----9---9----9---9--|
D|--------------------------------------|
A|--7--------6--------------------------|
E|--------------------9--------7--------|
  she keeps

E|--------------------------------------|
B|--9---9----9---7----------------------|
G|----9---9----9---9--------9--------9--|
D|--------------------9-9-9----9-9-9----|
A|--7--------7--------------------------|
E|--------------------9--------7--------|
  me away from this song of mine

INTRO
VERSE
INTRO 
CHORUS
INTRO
VERSE

End

E|---------------------------------------|
B|--9---9----9---9----9---9----9----6----|
G|----9---9----9---9----9---9----9----9--| 
D|---------------------------------------|
A|--7--------6-----------------7----5----|
E|--------------------9------------------|

E|-----------------------7------7--9--11--12--|
B|--9---9------10---9--------10-----------12--|
G|----9---9-------9---9----9--------------13--|
D|--------------------------------------------|
A|--7--------6-----------7--------------------|
E|--------------------------------------------|

-tapos-


magreklamo lang sa mj_080@yahoo
Comments