Hairless Mary - E V O L Chords & Tabs

 

E V O L Chords & Tabs

Hairless Mary Chords & Tabs

Version: 1 Type: Bass Tab 0 ratings
1 star 2 stars 3 stars 4 stars 5 stars
comments

E V O L Bass Tab

   
Band-Hairless Mary
Song-E.V.O.L 
CD-Do You Know the Secret?
Albino Apache Records
Tab by FunkBaz5591@aol.com

Standard Tuning (E,A,D,G)
( ^ -Downstroke )

Intro.  (x4) let every high note ring

G:|----2----2----2----2----2\3----3----3----5----3----2----|
D:|-0----00---00---00---00-----0----00---00---00---00---00-|
A:|--------------------------------------------------------|
E:|--------------------------------------------------------|

Verse 

ring        ...      ...    ...
G:|-------2H3------2H3----3P2--|
D:|-0--00-----0000-----00------| (4x) 
A:|----------------------------| 
E:|----------------------------| 

ring        ...      ...    ...
G:|-------3H5------3H5----5P3--|
D:|-0--00-----0000-----00------|  (2x)
A:|----------------------------| 
E:|----------------------------|


ring        ...      ...    ...
G:|-------2H3------2H3----3P2--|
D:|-0--00-----0000-----00------|  (2x)
A:|----------------------------| 
E:|----------------------------|
[ Tab from: http://www.guitartabs.cc/tabs/h/hairless_mary/e_v_o_l_btab.html ]
Pre Chorus:
                                  
G:|------------------|--------------------|
D:|-0--00--3--33-55--|-0--00--3--3333-0-5-|
A:|------------------|--------------------|
E:|------------------|--------------------|

G:|--------------------|-------------------------|
D:|-0--00--3--3333-55--|-0--0-3--03-03-03-03H5-5-|
A:|--------------------|-------------------------|
E:|--------------------|-------------------------|
                                    
Chorus  (4x)

G:|---------------------|----------------------|
D:|---------------------|-----------------3H5--|
A:|-3--33-6--66-55\4----|-3--33-6--666-55------|
E:|---------------------|----------------------|

Intro.  (2x)

Verse 2

Pre Chorus

Chorus

Bridge (4x)

G:|--------0-3H5-------0-3H5--------|
D:|-0--3H5-------0-3H5-------0-1H3--|
A:|---------------------------------| 
E:|---------------------------------| 

G:|--------0-3H5-------0-3H5--------|
D:|-0--3H5-------0-3H5-------0------|
A:|----------------------------3H5--| 
E:|---------------------------------| 


Outro  (4x)

G:|-2--22x-5-55-55x-|-2--22x-5--55--xx-4--|
D:|-0--00x-3-33-33x-|-0--00x-3--33--xx-2--|
A:|-----------------|---------------------|
E:|-----------------|---------------------|
    ^  ^^^ ^ ^^ ^^^   ^  ^^^ ^  ^^  ^^ ^       

Comments