Haim - Edge Chords & Tabs

 

Edge Chords & Tabs

Haim Chords & Tabs

Version: 1 Type: Chords 0 ratings
1 star 2 stars 3 stars 4 stars 5 stars
comments

Edge Chords

   
-------------------------------------------------------------------------------
                             EDGE - Haim
-------------------------------------------------------------------------------
Tabbed by: Lauren Marquez
E-mail: lauren.marquez4@gmail.com

Tuning: Standard

[Verse]
F                    G6
I was always running, always hurt
Am                       G6
But I couldn't let it go, it was too hard to get going
F                      G6
And I kept hoping that you would run first
Am                    G6
I couldn't let it go, you were too good to know

Dm          C
You were my own
             Am
The memories hold
            G6
They're overgrown

F
But now I know
        G6
There's no climbing over
            Am                     G6
Because I know you'll never see me through


[Chorus]***
                    F                      G6
But I can feel my heart racing down on me
                 F                   G6
Feeling like the sun setting on the sea
                    F                   G6
It's getting to the edge of what could be
                 Am                    G6
I can't fight it off, I can't fight it off


[Verse]
F                                G6
Oh, you know you could've had it all

But you wore me like your crown
Am
And it seemed your favorite thing to do
G6
Was to keep me in the dark and turned around

F
You can say I'm crazy for giving up
G6
You can wave your sayings like a flag
Am
You can wave it high over your head
G6
You can sing your song to bring me down

Dm          C
You were my own
             Am
The memories hold
            G6
They're overgrown
Dm             C
Moments of the past
                Am               G6
have dimmed too much to bring us back


[Chorus]
                  F                      G6
But I can feel my heart racing down on me
                 F                   G6
Feeling like the sun setting on the sea
                    F                   G6
It's getting to the edge of what could be
                 Am                    G6
I can't fight it off, I can't fight it off

(Repeat)***

[ Tab from: http://www.guitartabs.cc/tabs/h/haim/edge_crd.html ]
[Bridge]***
F
No I can't, no, I can't fight it off
G6
No I can't, no, I can't fight it off
F
No I can't, no, I can't fight it off
G6
No I can't, no, I can't fight it off (Over and over, over and over)

F
No I can't, no, I can't fight it off
G6
No I can't, no, I can't fight it off
Am
No I can't, no, I can't fight it off
G6
No I can't, no, I can't fight it off (Over and over, over and over)


[Chorus]
                  F                      G6
But I can feel my heart racing down on me
                 F                   G6
Feeling like the sun setting on the sea
                    F                   G6
It's getting to the edge of what could be
                 Am                    G6
I can't fight it off, I can't fight it off


[Outro]
F
Edge of what could be
G6
Edge of what could be
F                      G6
Edge of what could be (over and over, over and over)
F
Edge of what could be
G6
Edge of what could be
Am                     G6
Edge of what could be (over and over, over and over)



*** Guitar riff that plays during these parts:
e|-----------------------------------------------------------|
B|--------------------------------------------------------5--|
G|------5------5------5------7-------5------5------5---------|
D|--5-7----5-7----5-7----5-7-----5-7----5-7----5-7----5-7----|
A|-----------------------------------------------------------|
E|-----------------------------------------------------------|

e|-----------------------------------------------------------|
B|---------------------------------------------5-6-5---------|
G|------5------5------5------7-------5------5--------7-5-----|
D|--5-7----5-7----5-7----5-7-----5-7----5-7-------------7----|
A|-----------------------------------------------------------|
E|-----------------------------------------------------------|

e|-----------------------------------------------------------|
B|--------------------------------------------------------5--|
G|------5------5------5------7-------5------5------5---------|
D|--5-7----5-7----5-7----5-7-----5-7----5-7----5-7----5-7----|
A|-----------------------------------------------------------|
E|-----------------------------------------------------------|

e|-------------------------|
B|--5-6-5------------------|
G|--------7-5--------------|
D|------------7-----5-7-5--|
A|-------------------------|
E|-------------------------|
Comments