H-blockx - Fight The Force Chords & Tabs

 

Fight The Force Chords & Tabs

H-blockx Chords & Tabs

Version: 1 Type: Tab 0 ratings
1 star 2 stars 3 stars 4 stars 5 stars
comments

Fight The Force Tab

H-Bloxx-Fight the force

That is a really cool song...but It's hard stuff...I don't no on which album it is...but 
an old song...I think 1994 or something like this....enjoy it

E|----------------x xx---|
B|----------------x-xx---|
G|-------3---2/3 -xxx-3-|
D|5-3h5----0-2/3- xxx-3-|
A|5---------------xxx-1-|
E|3---------------xxx---|


E|----------------------------|
B|----------------------------|
G|-------3--------------------|
D|5-3h5--0-------3------------|
A|5-----------4h5 -5-4-3------|
E|3-------------------------6-|

[ Tab from: http://www.guitartabs.cc/tabs/h/h_blockx/fight_the_force_tab.html ]
Strophe:
E|-----------------------------------------------------------------------|
B|-----------------------------------------------------------------------|
G|-------------2/3---(x-x-2----------------------------------------------|3)
D|-------------2/3---(x-x-2/3)      after 8 times they play the and (xx--|
A|-0-0-0h1---------------------------------------------------------------|
E|3----------3-----------------------------------------------------------|


Refrain:
E|-----------------------------------------------------------------------|
B|-----------------------------------------------------------------------|
G|-------------------2-----2h3p2----------- (2-2-2-----------------------| every second part you
D|2--------------2--2-------------5-2------ (2-2-2) play the ending (xx--|
A|2-----------------0------------------5-2--(0-0-0)----------------------|
E|0-0-0-0-3b5------------------------------------------------------------|


Sorry there is one more part...and I can't hear the last part
Comments