H2o - Role Model Chords & Tabs

 

Role Model Chords & Tabs

H2o Chords & Tabs

Version: 1 Type: Bass Tab 0 ratings
1 star 2 stars 3 stars 4 stars 5 stars
comments

Role Model Bass Tab

G------------------------------------------------------------
D--------------------3-3-3-3--3h5-3h5-3h5--------------------
A--3-3-3-3--5-5-5-5------------------------------------------
E------------------------------------------------------------

G------------------------------------------------------------
D-----------5-5-5-5--3-3-3-3-----3---------------------------
A--3-3-3-3---------------------------------------------------
E-----------------------------1------------------------------
[ Tab from: http://www.guitartabs.cc/tabs/h/h2o/role_model_btab.html ]
G------------------------------------------------------------
D------------------------------------------------------------
A------------------------------------------------------------
E--0-0-0-0--3-3-3-3-3-3-3--0-0-0-0--3-3-3-3-3-3-3------------

G------------------------------------------------------------
D------------------------------------------------------------
A--0-0-0-0--3-3-3-3-3-3-3--0-0-0-0-0-0-0-0-------------------
E------------------------------------------------------------

G------------------------------------------------------------
D------------------------------------------------------------
A-----------5-5-5-5-5-----------3--2--0----------------------
E--3-3-3-3-------------1-1-1-1-------------------------------

G------------------------------------------------------------
D-------------------------------3--2--0----------------------
A-----------5-5-5-5-5----------------------------------------
E--3-3-3-3-------------1-1-1-1-------------------------------
Comments