H2o - Faster Than The World Chords & Tabs

 

Faster Than The World Chords & Tabs

H2o Chords & Tabs

Version: 2 Type: Bass Tab 0 ratings
1 star 2 stars 3 stars 4 stars 5 stars
comments

Faster Than The World Bass Tab

Song: Faster Than The World
Artist: H2O
Tabbed By: Craig Hurley


Intro
G|--------------|--7-5-4----5--------|
D|--------------|---------4---7------|
A|--5-----------|--------------------|
E|----5--7-0----|--------------------|


Verse
G|---------------------------------|-----------------7-5-------------|
D|-7-7-7---------------------------|-7-7-7----------------7-5--------|
A|--------7--7-7-7--5---7--7-7-7---|-------7--7-7-7------------7-5-3-|
E|--------------------5------------|---------------------------------|
Play 3 times for the first verse, becuase one part is with the intro,
Play twice for the rests of the verse's
[ Tab from: http://www.guitartabs.cc/tabs/h/h2o/faster_than_the_world_btab_ver_2.html ]
Refrain
G|-------------|--------------|-------------|-------|
D|-------------|--------------|-------------|-------|
A|-7---5-------|-7---5--------|-7---5-------|-------|
E|---7---5-3-0-|---7---5-3-0--|---7---5-3-0-|-3-5-0-|

Bass Break/Outro

G|----------|---7----7-9--------|-7-9-7---7--------------| Play through
D|----------|-9---9-------------|-------9---9-8-7--------| a few times
A|----------|-------------------|------------------------|
E|-0--3-5-0-|-------------3-5-0-|------------------3-5-0-|


G|-9--7---------------|
D|------9-8-7---5-7---|
A|------------7-------|
E|------------------0-|
This is when they are naming all the cities.

Craig Hurley
-CaptainCraig@hotmail.com
Comments