H2o - Family Tree Chords & Tabs

 

Family Tree Chords & Tabs

H2o Chords & Tabs

Version: 1 Type: Bass Tab 0 ratings
1 star 2 stars 3 stars 4 stars 5 stars
comments

Family Tree Bass Tab

Song: Family Tree (roots)
Band: H20
Album: S/T
tabbed by: ALBINO
bbfan@bellatlantic.net
http://www.geocities.com/SunsetStrip/Stage/5367/tab.html

				">" = strum
For the main riff, he plays the same thing over and over, except he 
changes the last 2 notes every time. So here are all the different 
versions of the main riff:

G:-----------------------
D:-----5-----------------
A:-3-3---3-5----5-5------
E:-----------------------


G:-----------------------
D:-----5--------5--------
A:-3-3---3-5------5------
E:-----------------------

[ Tab from: http://www.guitartabs.cc/tabs/h/h2o/family_tree_btab.html ]
G:-----------------------
D:-----5-----------------
A:-3-3---3-5----3-5------
E:-----------------------


G:-----------------------
D:-----5--------5-5------
A:-3-3---3-5-------------
E:-----------------------


G:-----------------------
D:-----5--------5--------
A:-3-3---3-5------3------
E:-----------------------




the other part: (i think this might be wrong...)
G:-----------------------
D:------5>---------------
A:--3>-------------------
E:-----------------------


corrections, questions, tab, and other stuff goes to bbfan@bellatlantic.net

Comments