H2o - Fading Chords & Tabs

 

Fading Chords & Tabs

H2o Chords & Tabs

Version: 1 Type: Tab 0 ratings
1 star 2 stars 3 stars 4 stars 5 stars
comments

Fading Tab

H2O - Fading
tabbed by Michael (dischords2@hotmail.com)
punkmusic.com/h2o
  
e|--------------------------------------------|
B|--------------------------------------------|
G|-----------------------------------5--------|
D|-----------------------------------x--------|
A|--12-slide down until you reach 3--3--------|
E|--------------------------------------------|

he might just be playing the g string on this..
I can't really tell, either way it sounds good..
e|---------------------------------------------|
B|---------------------------------------------|
G|-9--7--5--7--9--7--9--10--12--10-9--7--5-----|
D|-x--x--x--x--x--x--x--x---x---x--x--x--x-----|
A|-7--5--3--5--7--5--7--8---10--8--7--5--3-----|
E|---------------------------------------------|

e|--------------------------------------------------------|
B|----8---8---8----10---10---10----13----13----13----13---|
G|--5---5---5----7----7----7----10----10----10----10------|
D|--------------------------------------------------------|
A|--------------------------------------------------------|
E|--------------------------------------------------------|
[ Tab from: http://www.guitartabs.cc/tabs/h/h2o/fading_tab.html ]
Verse:
You look me in the eyes....
e|---------------------|
B|---------------------|
G|---------------------|
D|-5--7--5-------------|
A|-3--5--3--7-5-3-5----|
E|----------5-3-1-3----| x 2

Chorus:
I will never hold my breathe... (little variation to chorus)
e|------------------------|-----------------------------------|
B|------------------------|-----------------------------------|
G|------------------------|-----------------------------------|
D|-5-----------5----------|--5-------7------7-----------------|
A|-3--7--3--5--3--7--3--5-|--3--7-5--5-7-5--5-7-5-3-5---------|
E|----5--1--3-----5--1--3-|-----5-3----5-3----5-3-1-3---------|
							
(Verse)
(Chorus)


Bridge
All I can see....
e|---------------------------------------------------------------|
B|---------------------------------------------------------------|
G|---------------------------------------------------------------|
D|-7--------7--------7-------------------------------------------|
A|-5--5--3--5--5--3--5--5--3--7--5-------------------------------|
E|----3--1-----3--1-----3--1--5--3-->>back to opening riff-------|

(Chorus)
end:
e|--------------|
B|--------------|
G|--------------|
D|-5-------5----|
A|-3-7-5-7-3----|
E|---5-3-5------|
Comments