H2o - Eveready Chords & Tabs

 

Eveready Chords & Tabs

H2o Chords & Tabs

Version: 1 Type: Bass Tab 0 ratings
1 star 2 stars 3 stars 4 stars 5 stars
comments

Eveready Bass Tab

H2o - Eveready
Submitted By: Kyle
EMail: GP121234@aol.com

h=hold note

Intro 5x
G----------------
D----------------
A-2h-------------
E--------4h--2h--

after intro before verse
G-------------
D-------------
A-2h-----5-4-2
E-------------

Verse 2x
G----------------------------------------------------------------------
D----------------------------------------------------------------------
A-----------0-0-0-0-0-2-2-2-2-2-2-2-2---------0-0-0-0-0-----------0-0-0
E-2-2-2-2-2---------------------------2-2-2-2-----------0-0-0-0-0------
[ Tab from: http://www.guitartabs.cc/tabs/h/h2o/eveready_btab.html ]
Chorus #1 1x
G------------------------------------------------------------
D------------------------------------------------------------
A-2-2-2-2-2-2-2-2---------------------2-2-2-2-2-2-2-2-5-4-2--
E-----------------4-4-4-4-4-2-2-2-2-2------------------------

Then do Verse 2x

Then 1st part of 2nd Chorus goes like this
G------------------------------------------------------------
D------------------------------------------------------------
A-2-2-2-2-2-2-2-2---------------------2-2-2-2-2-2-2-2--------
E-----------------4-4-4-4-4-2-2-2-2-2-----------------2-4-5-4
Then do regular Chorus 1x

Then
G--------------------
D--------------------
A-------5-4-2--------
E-2-4-5-------2-4-5--

Then do Bridge
G------------------------------
D------------------------------
A------------------------5-4-2-
E-2-4-5h--2-4-5h--2-4-5h-------

Then do Verse 2x

Then Do Ending which is
G-----------------------
D-----------------------
A----------2h-----------
E-2-4-5h----------------
Comments