H - Tool Chords & Tabs

 

Tool Chords & Tabs

H Chords & Tabs

Version: 1 Type: Tab 0 ratings
1 star 2 stars 3 stars 4 stars 5 stars
comments

Tool Tab

   
Band: TOOL
Title: H.
Album: Ænema
Tabbed by: adam davis 
 

 INTRO (distorted bass) 
E|-------------------------------------|
B|-------------------------------------|
G|-------------------------------------|
D|-------------------------------------|
A|-----0-------------------0-----------|    A few times 
D|--0------3-----------0------3----5---| 
 

Fill 1  (with a flanger) 
E|--0---|
B|--3---|
G|--2---|
D|--0---|                 fade in with the  D chord 4 times  
A|--0---|
D|--0---|
 

RIFF 1 (Clean with chorus effect, slight distortion) 
E|-----------------------------------------------------| 
b|-----------------------------------------------------|
g|-----------5------5h7p5------------5--5--5--54-0—5--| 
d|-----7--------7---------7-----7----------------------|  2x  
a|-------8------------------------8--------------------|   
D|--0------------------------0-------------------------| 
 

RIFF 2 
e--------------------------------------------------------------|  
b--------------------------------------------------------------|  
g--------------------------------------------------------------|  
d--7------7--5---7-8-7-------7---5-------------------------5---| 
a------------------------------------7-8-7--5-----3--5--3------| 
E--------------------------------------------------------------| 
 
then play RIFF 1 one time only 
 

RIFF 3 (distorted, all palm muted) 
e-----------------------------------------|
b-----------------------------------------|  
g-----------------------------------------|      a couple of times  
d-----7-------5---------------------------|   
a-------8--------7-----3---5--------------|   
E--0--------------------------------------|  
 

RIFF 3 with slight variation  
e----------------------------------------|  
b----------------------------------------|  
g----------------------------------------|  
d-----7-----5------------------7------5--| 
a-------8------7----3---5--------8----5--| 
E—0-------------------------0---------5--| 
 

RIFF 4 
e-------------------| 
b-------------------| 
g-------------------| 
d-----7------5------| 
a-------8----5------| 
E--0---------5------| 
 

 
 
Chorus

e]----------------------------------------
b]----------------------------------------
g]----------------------------------------
d]-0-7-3-5--7-3-5--7-3-5--7-3-5-/10-
a]-0-7-3-5--7-3-5--7-3-5--7-3-5-/10-
d]-0-7-3-5--7-3-5--7-3-5--7-3-5-/10-

e]------------------------------------------
b]----------------------------------------2-
g]----------------------------------------3-
d]-0-7-3-5--7-3-5--10-0-7-3-5--7-3-5--0-
a]-0-7-3-5--7-3-5--10-0-7-3-5--7-3-5--0-
d]-0-7-3-5--7-3-5--10-0-7-3-5--7-3-5--0-

time reference - 3:03/6:07
lyrics - "considerately killing me..."

bass plays intro riff again and guitar plays this chord as the build up to the soft,
mellow part of the song:

e]-----------
b]-3-3-3-3-3-
g]-2-2-2-2-2-
d]-0-0-0-0-0-
a]-----------
d]-----------

time reference - 3:26/6:07

Soft, mellow part:

[all palm muted]

e]-------------
b]-------------
g]-------------
d]-------10h12-
a]-10h12-------
d]------------- duration - 3:26 to 4:02

time reference - 4:02

Overdrive Bridge
[ Tab from: http://www.guitartabs.cc/tabs/h/h/tool_tab.html ]
e]-------------------------------------------------------------------------------------------
b]-------------------------------------------------------------------------------------------
g]-------------------------------------------------------------------------------------------
d]-------------------------------------------------------------------------------------------
a]-10h12-10h12-10h12-10h12-12-12-12-12-12p10-10-10-10-10-10h12-12-12-12-12-12h13-13-13-13-13-
d]-------------------------------------------------------------------------------------------

e]--------------------------------------------------------------------
b]--------------------------------------------------------------------
g]--------------------------------------------------------------------
d]----14-10-12----------14-10-12------14-10-12b13-b13-b13-b13-b13-b13-
a]-12----------12h13p12------------12---------------------------------
d]--------------------------------------------------------------------

[palm muted]

e]---------------------------------------------------------
b]---------------------------------------------------------
g]---------------------------------------------------------
d]-8-8-8-8-8-8-8-8-5-5-5-5-5-5-5-5-10-10-10-10-10-10-10-10-
a]-8-8-8-8-8-8-8-8-5-5-5-5-5-5-5-5-10-10-10-10-10-10-10-10-
d]-8-8-8-8-8-8-8-8-5-5-5-5-5-5-5-5-10-10-10-10-10-10-10-10-

e]--------------------
b]-----------11-11-11-
g]-----------10-10-10-
d]-8-8-8-8-8-8--8--8--
a]-8-8-8-8-8-8--8--8--
d]-8-8-8-8-8-8--8--8--

[not palm muted]

e]---------------------------
b]-11---11-8---8-/13---13--
g]-10---10-7---7-/12---12--
d]-8----8--5---5-/10---10--
a]-8----8--5---5-/10---10--
d]-8----8--5---5-/10---10--

e]---
b]-3-
g]-2-
d]-0-
a]-0-
d]-0-

time reference - 4:45/6:07
lyrics - just after "i dont mind..."

Overdrive

[play very fast]

e]---------------------------------
b]---------------------------------
g]---------------------------------
d]-3-0-0-1-0-0-3-0-0-0-3-0-3-0-2h3-
a]-3-0-0-1-0-0-3-0-0-0-3-0-3-0-2h3-
d]-3-0-0-1-0-0-3-0-0-0-3-0-3-0-2h3- x4


e]-----------------------------
b]-----------------------------
g]-----------------------------
d]-----------------------------
a]-----------------------------
d]-3-0-0-1-0-0-3-0-0-0-3-0-3-0-

time reference - 4:54/6:07

Pre Chorus [straight after overdrive]

e]--------------------------------------------------
b]-/15-15-15-15-15----------------------------------
g]-/14-14-14-14-14----------------------------------
d]-/12-12-12-12-12-14-14-14-12-12-10/12-12p10h12p10-
a]--------------------------------------------------
d]--------------------------------------------------

e]------------------------------------------------------------
b]------------------------------------------------------------
g]-/14-14-14-14--14-14-14--14-14-14--14-14-12/14-14-7-7-7-7-7-
d]------------------------------------------------------------
a]------------------------------------------------------------
d]------------------------------------------------------------

e]------------
b]------------
g]-/b19b18b19-
d]------------
a]------------
d]------------

time reference - 5:23/6:07
lyrics - "well i am too..."

2nd Chorus

e]-----------------------
b]-----------------------
g]-----------------------
d]-0-5-1-1/3-3/5-5-10-12-
a]-0-5-1-1/3-3/5-5-10-12-
d]-0-5-1-1/3-3/5-5-10-12- x3

e]---------------------
b]-------------------3-
g]-------------------2-
d]-0-5-1-1/3-3/5-5---
a]-0-5-1-1/3-3/5-5---
d]-0-5-1-1/3-3/5-5---

time reference - 5:43/6:07
lyrics - "considerately killing me..."

Outro - just vocals for the first and second "considerately killing me", then:

e]-----------------
b]---------------5-
g]-2--2-0--2-0---4-
d]-------------0-3-
a]-----------------
d]-----------------

Comments