Gyroscope - Hollow Like Cheyenne Chords & Tabs

 

Hollow Like Cheyenne Chords & Tabs

Gyroscope Chords & Tabs

Version: 1 Type: Bass Tab 0 ratings
1 star 2 stars 3 stars 4 stars 5 stars
comments

Hollow Like Cheyenne Bass Tab

Gyroscope - Hollow Like Cheyenne
Album - Sound Shattering Sound
Tabbed By: Elias Allanby (lpaustralia@hotmail.com or blinkme_elias2002@yahoo.com.au)


BASS COMES IN
G|------------------------------------------------------------------| 
D|------------------------------------------------------------------|
A|------------------------------------------------------------------| x 2
E|--3-5--6-6-6-6-6-6-6-6--8-8-8-8-8-8-8-8--3-3-3-3-3-3-3-3-3-3-3-3--|


VERSE
G|-------------------------------------| X2
D|-------------------------------------|
A|--3--3-3--3-5--5-5--5----------------|
E|----------------------3-3-3-3-3-3-3--|

G|---------------------------------------| X2
D|---------------------------------------|
A|--8---8-8---8-3--3-3--3----------------|
E|------------------------3-3-3-3-3-3-3--|


CHORUS
G|------------------------------------------------------| X4
D|------------------------------------------------------|
A|--5-5-5-5--8-8-8-8------------------------------------|
E|---------------------6-6-6-6-6--5-5-5-5-5--3-3-3-3-3--|

		
BRIDGE
G|------------------------------------------|
D|------------------------------------------|
A|--5-5-5-5--7-7-7-7--8-8-8-8--10-10-10-10--|
E|------------------------------------------|

G|----------------------------------------------------------------------|
D|----------------------------------------------------------------------|
A|----------------------------------------------------------------------|
E|--6-6-6-6-6-6-6-6-6-6-6-6-6-6--5-5--3-3-3-3-3-3-3-3-3-3-3-3-3-3--5-5--|
[ Tab from: http://www.guitartabs.cc/tabs/g/gyroscope/hollow_like_cheyenne_btab.html ]
G|-----------------------------------------------------------------|
D|-----------------------------------------------------------------|
A|-----------------------------------------------------------------|
E|--6-6-6-6-6-6-6-6-6-6-6-6-6-6--5-5--3-3-3-3-3-3-3-3-3-3-3-3-3-3--|


INTERLUDE
G|--------------------------------------| X2
D|--------------------------------------|
A|--------------------------------------|
E|--6~----------------------1~------0~--|

G|---------------------------------------|
D|---------------------------------------|
A|---------------------------------------|
E|--5-5-5-5-5-5-5-5-5-5-5-5-5-5-5-5--1~--|


VERSE (wait 3bars)
G|---------------------------------------| X1
D|---------------------------------------|
A|--8---8-8---8-3--3-3--3----------------|
E|------------------------3-3-3-3-3-3-3--|


CHORUS


INTERLUDE 2
G|------------------------------------------------------------------------------|
D|------------------------------------------------------------------------------|
A|--5-5-5-5-5-5-5-5--7-7-7-7-7-7-7-7--8-8-8-8-8-8-8-8--10-10-10-10-10-10-10-10--|
E|------------------------------------------------------------------------------|


OUTRO 
G|-------------------------------------------------------------------------------| 
D|-------------------------------------------------------------------------------|
A|-------------------------------------------------------------------------------|
E|--6-6-6-6-6-6-6-6-6-6-6-6-6-6-6-6-6-6--8--3-3-3-3-3-3-3-3-3-3-3-3-3-3-3-3-3-3--|x 1

G|-------------------------------------------------------------------------------| 
D|-------------------------------------------------------------------------------|
A|-------------------------------------------------------------------------------|
E|--6-6-6-6-6-6-6-6-6-6-6-6-6-6-6-6-6-6--8--3-3-3-3-3-3-3-3-3-3-3-3-3-3-3-3-3-3--| x 5


END ON:
G|------|
D|------|
A|------|
E|--6~--|

www.freewebs.com/thenumlocks
Comments