Gym Class Heroes - Taxi Driver Chords & Tabs

 

Taxi Driver Chords & Tabs

Gym Class Heroes Chords & Tabs

Version: 1 Type: Tab 0 ratings
1 star 2 stars 3 stars 4 stars 5 stars
comments

Taxi Driver Tab

Tabber: Jon Richter
I would say this is only the intro, but this riff is played through the entire song.
This is my first tab and I know the first 12 notes are 100% but the rest im about
60-70%. This band just came out with this CD recently, so either buy it or listen
to em on purevolume.com, they're mostly hip hop with guitar parts, drum, and bass
parts. Ciao For Now.

/#  - slide to that fret but dont pick that fret.
(#) - optional note
[ Tab from: http://www.guitartabs.cc/tabs/g/gym_class_heroes/taxi_driver_tab.html ]
e|------5-----------5------------5----|
B|---7-----7-----7-----7------7-----7-|
G|7-----------6-----------4-----------|
D|------------------------------------|
A|------------------------------------|
E|------------------------------------|

e|----------------10------10----------------------------------------------|
B|------------------------7---------8--7----------------------------------|
G|-4--/6-6--6--7------7------------7----(6)-----------6-----------5-----4-|
D|---------------------------10--9-----------4--/7-7-----2--/4-4-----2----|
A|------------------------------------------------------------------------|
E|------------------------------------------------------------------------|
Comments