Gym Class Heroes - Faces In The Hall Chords & Tabs

 

Faces In The Hall Chords & Tabs

Gym Class Heroes Chords & Tabs

Version: 1 Type: Tab

Faces In The Hall Tab

hey guys it's my first tab. I love this song!! it's pretty easy; listen to the song to 
the timing. see ya.

[ Tab from: http://www.guitartabs.cc/tabs/g/gym_class_heroes/faces_in_the_hall_tab.html ]
e|-0-------0---------0-------0------3-0-----|
B|---1---1---1-----1---1---1---1--------1---|
G|-----2-------2-1-------2-------2----------|
D|------------------------------------------|
A|------------------------------------------|
E|------------------------------------------|


e|-0-------0----------0-------3-0--------------1-0---|
B|---1---1---1-----1----1---1-----1----3-1---1-----3-|
G|-----2-------2-1--------0---------0------0---------|
D|---------------------------------------------------|
A|---------------------------------------------------|
E|---------------------------------------------------|