Gyllene Tider - Sommartider Chords & Tabs

 

Sommartider Chords & Tabs

Gyllene Tider Chords & Tabs

Version: 2 Type: Bass Tab 0 ratings
1 star 2 stars 3 stars 4 stars 5 stars
comments

Sommartider Bass Tab

Band:Gyllene Tider
Song:Sommartider
tabbed by Johan. 17/2-2004 (this is the whole song)

G-----------------------| 
D-----------------------| x16
A----0-0-0-0-0-0-0-0----|
E-----------------------|



G----------------------------------------------------|
D----------------------------------------------------|
A----2-2-2-2-2-2-2-2-----------------2-2-2-2-2-2-2-2-|
E--------------------0-0-0-0-0-0-0-0-----------------|


sommartider hej,hej...
G----------------------------------------------|
D---------------------------2-2-2-2-2-2-2-2----|
A-----------5-5-5-5-5-5-5-5--------------------|
E----------------------------------------------|



G-----------------------------------------------------|
D-----------------------------------------------------|
A----0-0-0-0-0-0-0-0-5-5-5-5-5-5-4-4-2-2-2-2-2-2-2-2--|
E-----------------------------------------------------|


                                          
G-----------------------------------------------------| 
D------------------------------------2-2-2-2-2-2-2-2--| 
A--------------------0-0-0-0-0-0-0-0------------------| 
E----0-0-0-0-0-0-0-0----------------------------------| 
                                                       


sommartider hej,hej...
G----------------------------------------------|
D---------------------------2-2-2-2-2-2-2-2----|
A-----------5-5-5-5-5-5-5-5--------------------|
E----------------------------------------------|



G-----------------------------------------------------|
D-----------------------------------------------------|
A----0-0-0-0-0-0-0-0-5-5-5-5-5-5-4-4-2-2-2-2-2-2-2-2--|
E-----------------------------------------------------|


G--------------------------------------|
D--------------------------------------|
A--------------------------------------|
E----0-0-0-0-0-0-0-0-0-0-0-0-0-0-0-0---|



G-----------------------|
D-----------------------| x3
A----0-0-0-0-0-0-0-0----|
E-----------------------|



G-----------------------|
D-----------------------|
A-----------------------|
E----2-2-2-2-0-0-0-0----|



G-----------------------|
D-----------------------| x3
A----0-0-0-0-0-0-0-0----|
E-----------------------|



G-----------------------|
D-----------------------|
A-----------------------|
E----2-2-2-2-0-0-0-0----|




G----------------------------------------------------|
D----------------------------------------------------|
A----2-2-2-2-2-2-2-2-----------------2-2-2-2-2-2-2-2-|
E--------------------0-0-0-0-0-0-0-0-----------------|



sommartider hej,hej...
G----------------------------------------------|
D---------------------------2-2-2-2-2-2-2-2----|
A-----------5-5-5-5-5-5-5-5--------------------|
E----------------------------------------------|



G-----------------------------------------------------|
D-----------------------------------------------------|
A----0-0-0-0-0-0-0-0-5-5-5-5-5-5-4-4-2-2-2-2-2-2-2-2--|
E-----------------------------------------------------|

[ Tab from: http://www.guitartabs.cc/tabs/g/gyllene_tider/sommartider_btab_ver_2.html ]
                                          
G-----------------------------------------------------| 
D------------------------------------2-2-2-2-2-2-2-2--| 
A--------------------0-0-0-0-0-0-0-0------------------| 
E----0-0-0-0-0-0-0-0----------------------------------| 



sommartider hej,hej...
G----------------------------------------------|
D---------------------------2-2-2-2-2-2-2-2----|
A-----------5-5-5-5-5-5-5-5--------------------|
E----------------------------------------------|



G-----------------------------------------------------|
D-----------------------------------------------------|
A----0-0-0-0-0-0-0-0-5-5-5-5-5-5-4-4-2-2-2-2-2-2-2-2--|
E-----------------------------------------------------|


G--------------------------------------|
D--------------------------------------|
A--------------------------------------|
E----0-0-0-0-0-0-0-0-0-0-0-0-0-0-0-0---|
                                    



G-----------------------|          
D-----------------------| x7
A----0-0-0-0-0-0-0-0----|
E-----------------------|



G-----------------------|
D----2-2-2-2-2-2-2-2----|
A-----------------------|
E-----------------------|



sommartider hej,hej...
G----------------------------------------------|
D---------------------------2-2-2-2-2-2-2-2----|
A-----------5-5-5-5-5-5-5-5--------------------|
E----------------------------------------------|



G-----------------------------------------------------|
D-----------------------------------------------------|
A----0-0-0-0-0-0-0-0-5-5-5-5-5-5-4-4-2-2-2-2-2-2-2-2--|
E-----------------------------------------------------|


G--------------------------------------|
D--------------------------------------|
A--------------------------------------|
E----0-0-0-0-0-0-0-0-0-0-0-0-0-0-0-0---|



sommartider hej,hej...
G----------------------------------------------|
D---------------------------2-2-2-2-2-2-2-2----|
A-----------5-5-5-5-5-5-5-5--------------------|
E----------------------------------------------|



G-----------------------------------------------------|
D-----------------------------------------------------|
A----0-0-0-0-0-0-0-0-5-5-5-5-5-5-4-4-2-2-2-2-2-2-2-2--|
E-----------------------------------------------------|


                                          
G-----------------------------------------------------| 
D------------------------------------2-2-2-2-2-2-2-2--| 
A--------------------0-0-0-0-0-0-0-0------------------| 
E----0-0-0-0-0-0-0-0----------------------------------| 
                                                       


sommartider hej,hej...
G----------------------------------------------|
D---------------------------2-2-2-2-2-2-2-2----|
A-----------5-5-5-5-5-5-5-5--------------------|
E----------------------------------------------|



G-----------------------------------------------------|
D-----------------------------------------------------|
A----0-0-0-0-0-0-0-0-5-5-5-5-5-5-4-4-2-2-2-2-2-2-2-2--|
E-----------------------------------------------------|


G---------------------------------------|
D---------------------------------------|
A------------------------------------0--|
E----0-0-0-0-0-0-0-0-0-0-0-0-0-0-0-0----| End.
Comments