Gyllene Tider - Solsken Chords & Tabs

 

Solsken Chords & Tabs

Gyllene Tider Chords & Tabs

Version: 1 Type: Tab 0 ratings
1 star 2 stars 3 stars 4 stars 5 stars
comments

Solsken Tab

                          Gyllene Tider - Solsken
                         *************************
                           Solo Part - Solo Delen


Tabbed By: Niklas Hansson
Email: niklas_752@hotmail.com
[Efterlyser en tab till solot i GTs Gå Och Fiska]

e---9-9-9-9-11-9~~--7~--/9p-9-9-11-9-9-11------------------------11---------|
B-----------------------------------------9^-7--9p-9-7-9-9/11-11----11-9-7--|
G---------------------------------------------------------------------------|
D---------------------------------------------------------------------------|
A---------------------------------------------------------------------------|
E---------------------------------------------------------------------------|
[ Tab from: http://www.guitartabs.cc/tabs/g/gyllene_tider/solsken_tab.html ]
e---------------------------------------------------------------------------|
B--7-6-7-6-7-2--------------------------------------------------------------|
G---------------2-4^-4^-4^-4^-4^-4^-4^-2------------------------------------|
D----------------------------------------4-----3/4~------3/4~---------------|
A---------------------------------------------------------------------------|
E---------------------------------------------------------------------------|


Inte HELT som M.P spelar, men den duger fint!

Not exactly like M.P plays it, but it's OK!

Dessutom, min första tab (och jag hade inte guran i händerna,
så jag fick gå på minnet)

Obs! My first tab, and I didn't have my guitar when I wrote it,
so I had to trust my memory
Comments