Gyllene Tider - Ska Vi Alska Chords & Tabs

 

Ska Vi Alska Chords & Tabs

Gyllene Tider Chords & Tabs

Version: 1 Type: Tab 0 ratings
1 star 2 stars 3 stars 4 stars 5 stars
comments

Ska Vi Alska Tab

   
Band:Gyllene Tider
Title:Ska vi Älska
Tabbed by:Björn Ström


b=bend
r=release
p=pull of
h=hammer on
PM=Palm Muted
~=vibrate



INTRO.					________
  Am				      C		|
e|------------------------------------------|	|
B|------------------------------------------|	|
G|------------------------------------------|	|
D|-----0h2-2------0h2-2------0h2-2----5-----|	|
A|-0-0-------0--0-------0--0-------0--3---3-|	|
E|------------------------------------------|x3	}x2
  Am			    C	  G		|
e|------------------------------------------|	|
B|------------------------------------------|	|
G|------------------------------------------|	|
D|-----0h2-2------0h2-2p0---5-5-------------|	|
A|-0-0-------0--0-----------3-3---5---------|	|
E|--------------------------------3----3----|	|
				      __________|

VERSE1.
  [.PM.............................]
e|----------------------------------|
B|----------------------------------|
G|----------------------------------|
D|-2-2-2-2-2-2-2-2-5-5-5-5----------|
A|-0-0-0-0-0-0-0-0-3-3-3-3-5-3-5-5--|
E|-------------------------3-3-3-3--|x4

CHORUS.
  [.PM.........................................................]
e|--------------------------------------------------------------|
B|--------------------------------------------------------------|
G|--------------------------------------------------------------|
D|--------------------------------------------------------------|
A|-7-7-7-7-7-7-7-7-5-5-5-5-5-5-5-5-3-3-3-3-3-3-3-3-5-5-5-5-3--5-|
E|-5-5-5-5-5-5-5-5-3-3-3-3-3-3-3-3-1-1-1-1-1-1-1-1-3-3-3-3-1--3-|

  [.PM...........................................]
e|-----------------------------------------------------------|
B|-----------------------------------------------------------|
G|-----------------------------------------------------------|
D|-----------------------------------------------------------|
A|-7-7-7-7-7-7-7-7-5-5-5-5-5-5-5-5-3-3-3-3-3-1-3-3-5-5-5-5-5-|
E|-5-5-5-5-5-5-5-5-3-3-3-3-3-3-3-3-1-1-1-1-1-1-1-1-3-3-3-3-3-|

VERSE2.
  [.PM.............................]
e|----------------------------------|
B|----------------------------------|
G|----------------------------------|
D|-2-2-2-2-2-2-2-2-5-5-5-5----------|
A|-0-0-0-0-0-0-0-0-3-3-3-3-5-3-5-5--|
E|-------------------------3-3-3-3--|x4				
							   _______
CHORUS.								  |
  [.PM.........................................................]  |
e|--------------------------------------------------------------| |
B|--------------------------------------------------------------| |
G|--------------------------------------------------------------| |
D|--------------------------------------------------------------| |
A|-7-7-7-7-7-7-7-7-5-5-5-5-5-5-5-5-3-3-3-3-3-3-3-3-5-5-5-5-3--5-| |
E|-5-5-5-5-5-5-5-5-3-3-3-3-3-3-3-3-1-1-1-1-1-1-1-1-3-3-3-3-1--3-| |	
								  }X2
  [.PM...........................................]	  	  |
e|-----------------------------------------------------------|	  |
B|-----------------------------------------------------------|	  |
G|-----------------------------------------------------------|	  |
D|-----------------------------------------------------------|	  |
A|-7-7-7-7-7-7-7-7-5-5-5-5-5-5-5-5-3-3-3-3-3-3-3-3-5-5-5-5-5-|	  |
E|-5-5-5-5-5-5-5-5-3-3-3-3-3-3-3-3-1-1-1-1-1-1-1-1-3-3-3-3-3-|	  |
							__________|
PRE-SOLO.
e|---------------------------------------|
B|---------------------------------------|
G|--------------7-5~\-------------7-5~\--|
D|--------------7-5~\-------------7-5~\--|
A|-3-3/5-5/7-7--------3-3/5-5/7-7--------|
E|-1-1/3-3/5-5--------1-1/3-3/5-5-------

e|-----------------------------------------|
B|-----------------------------------------|
G|--------------7-5~\----------------------|
D|--------------7-5~\---------------5-5----|
A|-3-3/5-5/7-7--------3-3/5-5/7-7---3-3-5--|
E|-1-1/3-3/5-5--------1-1/3-3/5-5-------3--|

[ Tab from: http://www.guitartabs.cc/tabs/g/gyllene_tider/ska_vi_alska_tab.html ]
I'm not 100% sure about the solo, it's kind of hard to tab,
but this sounds OK to me.
The bends: When it says 7b9 you should bend 7 so it sounds like
9, and if it says 7b9r7p5 you should bend 7 so it sounds like 9
then release it back to 7 and then pull off to 5.

SOLO.
e|----------------------------------------------------|
B|------------5----5----5----5----5-------------------|
G|-----5-7-7b9_-7b9_-7b9_-7b9_-7b9__9r7p5-7-5-----5h7-|
D|-5-7----------------------------------------5h7-----|
A|----------------------------------------------------|
E|----------------------------------------------------|

e|-----3---------------------------------------|
B|---------------------------------------------|
G|-7b9__9r7p5-7-5-----5h7-7b9_b9_9r7p5-7-5-----|
D|----------------5h7----------------------5h7-|
A|---------------------------------------------|
E|---------------------------------------------|

e|----------5------5------5------5------------------------------|
B|---------5------5------5------5---------------------------8~--|
G|-5h7-7b9___-7b9___-7b9___-7b9___-7b8r7-5h7------5/7/9/-7h9----|
D|-------------------------------------------5h7----------------|
A|--------------------------------------------------------------|
E|--------------------------------------------------------------|

e|-----------------------------------------|
B|-10b12r10p8-10-8--10-8---8---------------|
G|-----------------------9---9-7-5-7-5-7~--|
D|-----------------------------------------|
A|-----------------------------------------|
E|-----------------------------------------|

e|--------5------5------5------5------5------5------5--|
B|-------5------5------5------5------5------5------5---|
G|-7-7b9___-7b9___-7b9___-7b9___-7b9___-7b9___-7b9___--|
D|-----------------------------------------------------|
A|-----------------------------------------------------|
E|-----------------------------------------------------|

e|------------------------------------------------|
B|------------------------------------------------|
G|-7--7b8_8r7p5-7-----5h7-7b8r7-5-4-----------5-7-|
D|----------------5h7---------------7-5~--5-7-----|
A|------------------------------------------------|
E|------------------------------------------------|

e|------5------5-------------------------------------------|
B|-----5------5----5---------------------------------------|
G|-7b9___-7b9___-7b9__9r7p5-7---------5-7-7b8_b8_8r7p5-4~--|
D|----------------------------5~--5-7----------------------|
A|---------------------------------------------------------|
E|---------------------------------------------------------|

e|------------------------------------|
B|---4--------------------------------|
G|-7---7-5~--5-7-5-3~\0---------------|
D|------------------------------------|
A|------------------------------------|
E|------------------------------------|

CHORUS.
  [.PM.........................................................]
e|--------------------------------------------------------------|
B|--------------------------------------------------------------|
G|--------------------------------------------------------------|
D|--------------------------------------------------------------|
A|-7-7-7-7-7-7-7-7-5-5-5-5-5-5-5-5-3-3-3-3-3-3-3-3-5-5-5-5-3--5-|
E|-5-5-5-5-5-5-5-5-3-3-3-3-3-3-3-3-1-1-1-1-1-1-1-1-3-3-3-3-1--3-|

  [.PM...........................................]
e|-----------------------------------------------------------|
B|-----------------------------------------------------------|
G|-----------------------------------------------------------|
D|-----------------------------------------------------------|
A|-7-7-7-7-7-7-7-7-5-5-5-5-5-5-5-5-3-3-3-3-3-1-3-3-5-5-5-5-5-|
E|-5-5-5-5-5-5-5-5-3-3-3-3-3-3-3-3-1-1-1-1-1-1-1-1-3-3-3-3-3-|

e|---------------------------|
B|---------------------------|
G|--5-4-2-0------------------|
D|---------------------------|
A|---------------------------|
E|---------------------------|

VERSE3.
  [.PM.............................]
e|----------------------------------|
B|----------------------------------|
G|----------------------------------|
D|-2-2-2-2-2-2-2-2-5-5-5-5----------|
A|-0-0-0-0-0-0-0-0-3-3-3-3-5-3-5-5--|
E|-------------------------3-3-3-3--|x4

Repeat Chorus a lot of times.

Any questions or corrections? Let me know ! bjornstrom90@hotmail.com
Comments