Gyllene Tider - Kung Av Sand Chords & Tabs

 

Kung Av Sand Chords & Tabs

Gyllene Tider Chords & Tabs

Version: 1 Type: Tab 0 ratings
1 star 2 stars 3 stars 4 stars 5 stars
comments

Kung Av Sand Tab

   
Gyllene Tider
Kung Av Sand
Halmstads Pärlor

Chords:
      G   D Dsus4 C Cadd9 A  Am   E  Em  F#m
e-|---3---2---3---0---3---0---0---0---0---2---|
B-|---0---3---3---1---3---2---1---0---0---2---|
G-|---0---2---2---0---0---2---2---1---0---2---|
D-|---0---0---0---2---2---2---2---2---2---4---|
A-|---2---x---x---3---3---0---0---2---2---4---|
E-|---3---x---x---x---x---x---x---0---0---2---|


Intro:
       G          D Dsus4    Cadd9      D Dsus4
e-|-----3-3--------2-3--------3-3--------2-3--|
B-|-----3-3--------3-3--------3-3--------3-3--|
G-|-----0-0------2-2-2--------0-0------2-2-2--|
D-|-----0-0----0---0-0------2-2-2----0---0-0--|
A-|---2-------------------3---3-3-------------|
E-|-3-----------------------------------------|

       G          D Dsus4    Cadd9      D Dsus4
e-|-----3-3--------2-3--------3-3--------2-3--|
B-|-----3-3--------3-3--------3-3--------3-3--|
G-|-----0-0------2-2-2--------0-0------2-2-2--|
D-|-----0-0----0---0-0------2-2-2----0---0-0--|
A-|---2-------------------3---3-3-------------|
E-|-3-----------------------------------------|

       Em         D Dsus4    Cadd9      D Dsus4
e-|-----0-0--------2-3--------3-3--------2-3--|
B-|-----0-0--------3-3--------3-3--------3-3--|
G-|-----0-0------2-2-2--------0-0------2-2-2--|
D-|---2-2-2----0---0-0------2-2-2----0---0-0--|
A-|-2---2-2---------------3---3-3-------------|
E-|-----0-0-----------------------------------|

       G          D Dsus4    Cadd9      D Dsus4
e-|-----3-3--------2-3--------3-3--------2-3--|
B-|-----3-3--------3-3--------3-3--------3-3--|
G-|-----0-0------2-2-2--------0-0------2-2-2--|
D-|-----0-0----0---0-0------2-2-2----0---0-0--|
A-|---2-------------------3---3-3-------------|
E-|-3-----------------------------------------|
                                    Intro Ends
[ Tab from: http://www.guitartabs.cc/tabs/g/gyllene_tider/kung_av_sand_tab.html ]
           G          D      C   D       G            D       C  D
Hör du sången dom spelar på radion varje ord verkar handla om dig
         Em     D               C               G  D  C  D
Hur du knackade på mitt i sommarn men kom aldrig mer igen
         G        D      C      D            G     D        Am C
Såg en mås cirkulera vid hamnen som om han letade efter en vän
          Em      D             C           D          G  D C
Samma morgon det regna på stranden där jag gick ensam igen


      A             F#m      D            E             A  F#m D E
Här kommer kung av sand här kommer kungen av ingenting alls
      A             F#m      D            E             A  F#m D E
Här kommer kung av sand här kommer kungen av ingenting alls


         G           D         C   D          G        D            C  D
Såg din ande hon vandra vid vattnet hennes fotsteg försvann i en vind
         Em     D           C           D                G   D
När jag vaknade upp under vinden kände jag värmen av din kind


      A             F#m      D            E             A  F#m D E
Här kommer kung av sand här kommer kungen av ingenting alls
      A             F#m      D            E             A  F#m D E
Här kommer kung av sand här kommer kungen av ingenting alls


   Em                            G          Em                           D  Am
Hej! Hör en kung av sand som kallar He he hej hör en kung av sand som kallar


      A             F#m      D            E             A  F#m D E
Här kommer kung av sand här kommer kungen av ingenting alls
      A             F#m      D            E             A  F#m D E
Här kommer kung av sand här kommer kungen av ingenting alls
      A             F#m      D            E             A  F#m D E
Här kommer kung av sand här kommer kungen av ingenting alls
      A             F#m      D            E             A  F#m D E
Här kommer kung av sand här kommer kungen av ingenting alls


Good Luck, Have Fun
Transcripted by Freppe Eriksson
or actually by a friend to me...
freppzor@hotmail.com

SLASH RULES!!!!!
Comments