Gyllene Tider - Flickorna Pa Tv Chords & Tabs

 

Flickorna Pa Tv Chords & Tabs

Gyllene Tider Chords & Tabs

Version: 1 Type: Tab 0 ratings
1 star 2 stars 3 stars 4 stars 5 stars
comments

Flickorna Pa Tv Tab

   
Band:Gyllene Tider
Title:Flickorna på TV2
Tabbed By:Börn Ström

b=bend
r=release
p=pull off
h=hammer on
~=Vibrate
/=slide up
\=slide down

Intro
  	Dm			       F  G
e|---------5-5--5---5~--------5-5---5------------|
B|---------6-6--6---6~--------6-6---6------------|
G|-7-5-----7-7--7---7~--------7-7---7--5--7------|
D|-7-5-----7-7--7---7~--------7-7---7--3--5------|
A|-5-3--5------(5)--5~--------5-5---5------------|
E|-----------------------------------------------|

  Dm				 F  G
e|---5-5--5---5~--------5-5---5------------------|
B|---6-6--6---6~--------6-6---6------------------|
G|---7-7--7---7~--------7-7---7--5--7------------|
D|---7-7--7---7~--------7-7---7--3--5------------|
A|-5-----(5)--5~--------5-5---5------------------|
E|-----------------------------------------------|

Verse1.
  Dm				 F  G
e|---5-5--5-------------5-5---5------------------|
B|---6-6--6-------------6-6---6------------------|
G|---7-7--7-------------7-7---7--5--7------------|
D|---7-7--7-------------7-7---7--3--5------------|
A|-------(5)------------5-5---5------------------|
E|-----------------------------------------------|x2

Riff.
e|--------------------------------------------|
B|-----8----8-11-8------8---------------------|
G|---7----7--------10-7---7----3-4-5-6--------|
D|-5------------------------5--3-4-5-6--------|
A|-----------------------------1-2-3-4--------|
E|--------------------------------------------|

  Dm				 F  G
e|---5-5--5-------------5-5---5------------------|
B|---6-6--6-------------6-6---6------------------|
G|---7-7--7-------------7-7---7--5--7------------|
D|---7-7--7-------------7-7---7--3--5------------|
A|-------(5)------------5-5---5------------------|
E|-----------------------------------------------|x2

Pre-Chorus.
e|----------------------------|
B|-----8----8-11-8------8-----|
G|---7----7--------10-7---7---|
D|-5------------------------5-|
A|----------------------------|
E|----------------------------|

Chorus.
   C Bb	         C	     D		  F  G
e|----------------------------------------------|
B|----------------------------------------------|
G|-5--3-3-3-3-3-3-5-5-5-5-5-5-7-7-7-7-7-7--5--7-|
D|-5--3-3-3-3-3-3-5-5-5-5-5-5-7-7-7-7-7-7--3--5-|
A|-3--1-1-1-1-1-1-3-3-3-3-3-3-5-5-5-5-5-5-------|
E|----------------------------------------------|
   Bb	       C	   D		F  G
e|--------------------------------------------|
B|--------------------------------------------|
G|-3-3-3-3-3-3-5-5-5-5-5-5-7-7-7-7-7-7--5--7--|
D|-3-3-3-3-3-3-5-5-5-5-5-5-7-7-7-7-7-7--3--5--|
A|-1-1-1-1-1-1-3-3-3-3-3-3-5-5-5-5-5-5--------|
E|--------------------------------------------|
   Bb		C	   D		F  G
e|---------------------------------------------|
B|---------------------------------------------|
G|---3-3----------5-5---------7-7-------5--7---|
D|---3-3----------5-5---------7-7-------3--5---|
A|---1-1----------3-3---------5-5--------------|
E|---------------------------------------------|
   Bb		C	      D
e|---------------------------------------------|
B|---------------------------------------------|
G|-3--3-3-------5--5-5-----5--7----------------|
D|-3--3-3-------5--5-5-----5--7----------------|
A|-1--1-1-------3--3-3-----3--5----------------|
E|---------------------------------------------|

Verse2.
  Dm				 F  G
e|---5-5--5---5~--------5-5---5----------------|
B|---6-6--6---6~--------6-6---6----------------|
G|---7-7--7---7~--------7-7---7--5--7----------|
D|---7-7--7---7~--------7-7---7--3--5----------|
A|-5-----(5)--5~--------5-5---5----------------|
E|---------------------------------------------|x2

  Dm				 F  G
e|---5-5--5-------------5-5---5------------------|
B|---6-6--6-------------6-6---6------------------|
G|---7-7--7-------------7-7---7--5--7------------|
D|---7-7--7-------------7-7---7--3--5------------|
A|-------(5)------------5-5---5------------------|
E|-----------------------------------------------|x2

e|--------------------------------------------|
B|-----8----8-11-8------8---------------------|
G|---7----7--------10-7---7----3-4-5-6--------|
D|-5------------------------5--3-4-5-6--------|
A|-----------------------------1-2-3-4--------|
E|--------------------------------------------|

  Dm				 F  G
e|---5-5--5-------------5-5---5------------------|
B|---6-6--6-------------6-6---6------------------|
G|---7-7--7-------------7-7---7--5--7------------|
D|---7-7--7-------------7-7---7--3--5------------|
A|-------(5)------------5-5---5------------------|
E|-----------------------------------------------|x2

Pre-Chorus.
e|----------------------------|
B|-----8----8-11-8------8-----|
G|---7----7--------10-7---7---|
D|-5------------------------5-|
A|----------------------------|
E|----------------------------|

Chorus.
   C Bb	         C	     D		  F  G
e|----------------------------------------------|
B|----------------------------------------------|
G|-5--3-3-3-3-3-3-5-5-5-5-5-5-7-7-7-7-7-7--5--7-|
D|-5--3-3-3-3-3-3-5-5-5-5-5-5-7-7-7-7-7-7--3--5-|
A|-3--1-1-1-1-1-1-3-3-3-3-3-3-5-5-5-5-5-5-------|
E|----------------------------------------------|

   Bb	       C	   D		F  G
e|--------------------------------------------|
B|--------------------------------------------|
G|-3-3-3-3-3-3-5-5-5-5-5-5-7-7-7-7-7-7--5--7--|
D|-3-3-3-3-3-3-5-5-5-5-5-5-7-7-7-7-7-7--3--5--|
A|-1-1-1-1-1-1-3-3-3-3-3-3-5-5-5-5-5-5--------|
E|--------------------------------------------|

   Bb		C	   D		F  G
e|---------------------------------------------|
B|---------------------------------------------|
G|---3-3----------5-5---------7-7-------5--7---|
D|---3-3----------5-5---------7-7-------3--5---|
A|---1-1----------3-3---------5-5--------------|
E|---------------------------------------------|
   Bb		C	      D
e|---------------------------------------------|
B|---------------------------------------------|
G|-3--3-3-------5--5-5-----5--7----------------|
D|-3--3-3-------5--5-5-----5--7----------------|
A|-1--1-1-------3--3-3-----3--5----------------|
E|---------------------------------------------|

Note: In the Solo, when it says 6b8 it means that you should
bend 6 so it sounds like 8,and if it says 6b8r6p4 you should
bend 6 so it sounds like 8 then release it back to 6 and then pull of to 4.

SOLO.
e|---------------------5--5----------------------------------------|
B|-10-8--6-8-6~-8b10-8b10___10r8p6-8-----6-8-8b10_b10_10r8p6-8-----|
G|-----------------------------------5-5-----------------------5\2-| 1Gtr.
D|-----------------------------------------------------------------|
A|-----------------------------------------------------------------|
E|-----------------------------------------------------------------|

    D C	   Dm			     		          F  G
e|-------5-5-----5------5~------------5-5------5-------------------|
B|-------6-6-----6------6~------------6-6------6-------------------|
G|--7-5--7-7-----7------7~------------7-7------7----------5--7-----| 2Gtr.
D|--7-5--7-7-----7------7~------------7-7------7----------3--5-----|
A|--5-3-5-------(5)-----5~------------5-5------5-----------------5-|
E|-----------------------------------------------------------------|
*_ _ _ _ _ _ _ _ _ _ _ _ _ _ _ _ _ _ _ _ _ _ _ _ _ _ _ _ _ _ _ _ _ _ _ _ _ _*
[ Tab from: http://www.guitartabs.cc/tabs/g/gyllene_tider/flickorna_pa_tv_tab.html ]
e|-------------------------------------------------|
B|-------------------------------------------------|
G|-0-2-0-2~-2/5/7/9-9-9b10__10r9p7-9-7--5--------5-|
D|----------------------------------------7--5-7---|
A|-------------------------------------------------|
E|-------------------------------------------------|

 Dm				 F  G
e|---5-5--5-------------5-5---5----------------|
B|---6-6--6-------------6-6---6----------------|
G|---7-7--7-------------7-7---7--5--7----------|
D|---7-7--7-------------7-7---7--3--5----------|
A|-------(5)------------5-5---5----------------|
E|---------------------------------------------|
*_ _ _ _ _ _ _ _ _ _ _ _ _ _ _ _ _ _ _ _ _ _ _ _ _ _ _ _ _ _ _ _ _ _ _ _ _ _*

e|----------------------------------------------------|
B|--------------------------------------6-------------|
G|--------------------------5-7-7--9b10___10r9p7-9-7~-|
D|-7b8__8r7p5-7p5----/5-7-7---------------------------|
A|----------------5\----------------------------------|
E|----------------------------------------------------|

e|---------------------------------------------------|
B|---------------------------------------------------|
G|---------------------------------------3--4--5--6--|
D|----5--------------5--8-5-----5--------3--4--5--6--|
A|---5-------------5--------8-5---5------1--2--3--4--|
E|--3-------------------------------3----------------|
*_ _ _ _ _ _ _ _ _ _ _ _ _ _ _ _ _ _ _ _ _ _ _ _ _ _ _ _ _ _ _ _ _ _ _ _ _ _*

e|---------------8-10-10~--10-8----------------------|
B|---6-8-10~--10----------------10-10b11r10p8-10-8-6-|
G|-9-------------------------------------------------|
D|---------------------------------------------------|
A|---------------------------------------------------|
E|---------------------------------------------------|

Dm				       F  G
e|----5-5---5-------------5-5----5-------------------|
B|----6-6---6-------------6-6----6-------------------|
G|----7-7---7-------------7-7----7-----5--7----------|
D|----7-7---7-------------7-7----7-----3--5----------|
A|---------(5)------------5-5----5-------------------|
E|---------------------------------------------------|
*_ _ _ _ _ _ _ _ _ _ _ _ _ _ _ _ _ _ _ _ _ _ _ _ _ _ _ _ _ _ _ _ _ _ _ _ _ _*

e|------5------------------------5-------------------|
B|-8b10__10r8p6-8-6---6-8-8-8b10__10r8p6-8-6---6~--8-|
G|------------------7------------------------7-------|
D|---------------------------------------------------|
A|---------------------------------------------------|
E|---------------------------------------------------|

   Bb			        C
e|---------------------------------------------------|
B|---------------------------------------------------|
G|-3-----3-----3-----3----3----5----5----5----5----5-|
D|-3-----3-----3-----3----3----5----5----5----5----5-|
A|-1-----1-----1-----1----1----3----3----3----3----3-|
E|---------------------------------------------------|
*_ _ _ _ _ _ _ _ _ _ _ _ _ _ _ _ _ _ _ _ _ _ _ _ _ _ _ _ _ _ _ _ _ _ _ _ _ _*

e|---------------------------------------------------|
B|-8b10_b10_10r8p6-8-6-----6-8-8b10_b10_10r8p6-8-6-8-|
G|---------------------5-7---------------------------|
D|---------------------------------------------------|
A|---------------------------------------------------|
E|---------------------------------------------------|

   D				 F	 G
e|--------------------------------------------|
B|--------------------------------------------|
G|-7----7----7----7----7----7----5-------7----|
D|-7----7----7----7----7----7----3-------5----|
A|-5----5----5----5----5----5-----------------|
E|--------------------------------------------|
*_ _ _ _ _ _ _ _ _ _ _ _ _ _ _ _ _ _ _ _ _ _ _ _ _ _ _ _ _ _ _ _ _ _ _ _ _ _*

e|-------------------------------6-8-8b10--8b10_10r8p5-8--------|
B|-8b9__9r8-6h8-----6-8b10r8p6-8-------------------------6--8-6-|
G|--------------5/7---------------------------------------------|
D|--------------------------------------------------------------|
A|--------------------------------------------------------------|
E|--------------------------------------------------------------|

  Bb		     C	 		D			F    G
e|--------------------------------------------------------------|
B|--------------------------------------------------------------|
G|-3--3--3--3--3--3--5--5--5--5--5--5---7--7--7--7--7---5----7--|
D|-3--3--3--3--3--3--5--3--5--5--5--3---7--7--7--7--7---3----5--|
A|-1--1--1--1--1--1--3--3--3--3--3--3---5--5--5--5--5-----------|
E|--------------------------------------------------------------|
*_ _ _ _ _ _ _ _ _ _ _ _ _ _ _ _ _ _ _ _ _ _ _ _ _ _ _ _ _ _ _ _ _ _ _ _ _ _*

e|------5------------------------5-------------------|
B|-8b10__10r8p6-8-6---6-8-8-8b10__10r8p6-8-6---6~--8-|
G|------------------7------------------------7-------|
D|---------------------------------------------------|
A|---------------------------------------------------|
E|---------------------------------------------------|

  Bb			        C
e|---------------------------------------------------|
B|---------------------------------------------------|
G|----------3---3---------------------5---5----------|
D|----------3---3---------------------5---5----------|
A|----------1---1---------------------3---3----------|
E|---------------------------------------------------|
*_ _ _ _ _ _ _ _ _ _ _ _ _ _ _ _ _ _ _ _ _ _ _ _ _ _ _ _ _ _ _ _ _ _ _ _ _ _*

e|------5----------------------------------------------|
B|-8b10__10r8p6-8-6-5b6r5-3--5-3-5b6_6r5p3-5--5-3------|
G|------------------------------------------------5-7~-|
D|-----------------------------------------------------|
A|-----------------------------------------------------|
E|-----------------------------------------------------|
  D		     F   G	 Bb	   C	     D
e|------------------------------------------------------|
B|------------------------------------------------------|
G|----------7---7----5---7-------3--3--3---5-5----5--7--|
D|----------7---7----3---5-------3--3--3---5-5----5--7--|
A|----------5---5----------------1--1--1---3-3----3--5--|
E|------------------------------------------------------|
*_ _ _ _ _ _ _ _ _ _ _ _ _ _ _ _ _ _ _ _ _ _ _ _ _ _ _ _ _ _ _ _ _ _ _ _ _ _*

Chorus.
   C Bb	         C	     D		  F  G
e|----------------------------------------------|
B|----------------------------------------------|
G|-5--3-3-3-3-3-3-5-5-5-5-5-5-7-7-7-7-7-7--5--7-|
D|-5--3-3-3-3-3-3-5-5-5-5-5-5-7-7-7-7-7-7--3--5-|
A|-3--1-1-1-1-1-1-3-3-3-3-3-3-5-5-5-5-5-5-------|
E|----------------------------------------------|
   Bb	       C	   D		F  G
e|--------------------------------------------|
B|--------------------------------------------|
G|-3-3-3-3-3-3-5-5-5-5-5-5-7-7-7-7-7-7--5--7--|
D|-3-3-3-3-3-3-5-5-5-5-5-5-7-7-7-7-7-7--3--5--|
A|-1-1-1-1-1-1-3-3-3-3-3-3-5-5-5-5-5-5--------|
E|--------------------------------------------|
   Bb		C	   D		F  G
e|---------------------------------------------|
B|---------------------------------------------|
G|---3-3----------5-5---------7-7-------5--7---|
D|---3-3----------5-5---------7-7-------3--5---|
A|---1-1----------3-3---------5-5--------------|
E|---------------------------------------------|
   Bb		C	      D
e|---------------------------------------------|
B|---------------------------------------------|
G|-3--3-3-------5--5-5-----5--7----------------|
D|-3--3-3-------5--5-5-----5--7----------------|
A|-1--1-1-------3--3-3-----3--5----------------|
E|---------------------------------------------|

END.
Comments