Gwar - Vlap The Impaler Chords & Tabs

 

Vlap The Impaler Chords & Tabs

Gwar Chords & Tabs

Version: 2 Type: Bass Tab 0 ratings
1 star 2 stars 3 stars 4 stars 5 stars
comments

Vlap The Impaler Bass Tab

Vlap The Impaler - GWAR (tabbed by: ryan b)
Riff A: (twice)
A---------------------------------------O-1-O-----O-------
E--OOOO-OOOO-OOO--3-3-2--OOOO-OOOO--3----------3-----3-2--

Riff B: (twice)
A---------------------------------0000-------
E--0000-0000-000--3-3--0000-0000--------3-2--

Riff C: (once)
A--0000------------------------
E--------3-2--3-2-3-2-3-2-3-2--

Riff D: (4 times)
A--222222--------------------------
E----------333333--555555--222222--
[ Tab from: http://www.guitartabs.cc/tabs/g/gwar/vlap_the_impaler_btab_ver_2.html ]
Riff A: (once)
Riff E: (once)
A--------------------------------------1-0-1-3--
E--0000-0000-000--3-3-2--0000-0000--3-----------

Riff B: (twice)
Riff C: (once)
Riff D: (3 times)

Riff F: (once)
A--222222------------------
E----------333333--555555--

Riff G: (once)
A---------------------------2--
E--2--3--2--3---2--3--2--5-----

Riff H: (once)
A--22---------------
E-------33--55--22--

Riff D: (8 times)
Riff I: (3 times)
A-------------------------------------------------
E--2--00000000--3--00000000--5--00000000--222222--

Riff J: (once)
A-----------------------------------------
E--2--00000000--3--00000000--5--00000000--

Riff G: (twice)

Comments