Gwar - Sexecutioner Chords & Tabs

 

Sexecutioner Chords & Tabs

Gwar Chords & Tabs

Version: 2 Type: Bass Tab 0 ratings
1 star 2 stars 3 stars 4 stars 5 stars
comments

Sexecutioner Bass Tab

Sexecutioner - GWAR (tabbed by: ryan b)

Riff A: (twice)
D--------3-------
A-----------3-3--
Eb--2--3---------

Riff B: (4 times)
A--------------3-2-0--3-2-0--3-2--
Eb--0-2-2-2-3---------------------

Riff C: (once)
A---5-3-0--5-6-0--5-3--
Eb---------------------

Riff D: (once)
A---5-3-0--5-6-0--5-3------
Eb----------------------0--

Riff E: (once)
G--------------------------3----------------
D----------------------3h5---5--3-----------
A---5-3-0--5-6-0--5-3--------------5--3-----
Eb---------------------------------------5--
[ Tab from: http://www.guitartabs.cc/tabs/g/gwar/sexecutioner_btab_ver_2.html ]
Riff F: (once)
D--------------------------5---2---5---2-------
A--5-3-0--5-6-0--5-3-----3---3---3---3---3-----
Eb--------------------0---------------------2--

Riff A: (twice)

Riff G: (4 times)
A---4-2--4-2-4--3-2-0--3-2-0--3-2--
Eb---------------------------------

Riff C: (once)
Riff D: (once)
Riff E: (once)
Riff F: (once)

Riff H: (4 times)
A--------------------
Eb--2-2/3-3/5-5-555--

Riff I: (4 times)
A-----------------------------------------------------
Eb-2-2-2--2222-2--3-3-3--3333-3--5-5-5-5-5-5-5-5-5-5--

Riff J: (once)
A-----------------------
E--5-5-5-5-5-5-5-5-5-5--

Riff A: (twice)
Riff G: (4 times)
Riff C: (once)
Riff D: (once)
Riff E: (once)
Riff F: (once)

Riff K: (once)
A-------------
E--2-2-2-2-2--

Comments