Gwar - Saddam A Go-go Chords & Tabs

 

Saddam A Go-go Chords & Tabs

Gwar Chords & Tabs

Version: 1 Type: Bass Tab 0 ratings
1 star 2 stars 3 stars 4 stars 5 stars
comments

Saddam A Go-go Bass Tab

GWAR - Saddam a Go-Go
Tabbed by David White
Tune to E flat

Verse:
Gb|----------|    |-----|
Db|----------| X7 |-----|
Ab|----------|    |-----|
Eb|--2-3-0-0-|    |--6--|

Bridge into Chorus:
Gb|-----------|
Db|-----------|
Ab|--4-3-1----|
Eb|--------1--|
[ Tab from: http://www.guitartabs.cc/tabs/g/gwar/saddam_a_go_go_btab.html ]
Chorus:                    He was someone who was there for....
Gb|---------------------|  |----------|    |-----|
Db|---------------------|  |----------| X3 |-----|
Ab|---------------------|  |----------|    |-----|
Eb|--00000--0-0--00000--|  |--0-1-4-3-|    |--0--|

Chorus Variation:
Gb|----------------------|
Db|----------------------|
Ab|----------------------|
Eb|--1-2-5-4--1-2-5-4-2--|

And cheer as your scuds fall like rain.....
Gb|--------------------------------------------------|
Db|--------------------------------------------------|
Ab|---------------------------444444477777774444-----|
Eb|--1-2---5-4---0-1---4-3-----------------------3~--|

*see this tab and more at http://www.sjlmband.com/
Comments