Gwar - Road Behind Chords & Tabs


Road Behind Chords & Tabs

Gwar Chords & Tabs

Version: 1 Type: Tab 1 rating
1 star 2 stars 3 stars 4 stars 5 stars

Road Behind Tab

The Road Behind
America Must Be Destroyed
Tabbed by:Nathan Laff (but does it matter since someone will claim 
it's their's anyway)

This song is tuned down 1/2...actually its not but tune it down anyways because Balsac plays it like this on 
the video and its a lot easier...This is almost complete except a little bit of the solo but make your own solo
up, it is more fun that way, also since people are too lazy at the end of this is 
the second half to Love Surgery.

Riff 1a                 Riff 1b  Riff 1c                        Riff 1d
e ----------------------|-----2-|---------3-----------3--------|---------2-----------2--------|
b ----------------------|-----2-|-----------3-----------3------|-----------2-----------2------|
g --2-2-2---2-2-2---2-2-|-------|-----5-------5-------------5--|-----4-------4-------------4--|
d --2-2-2---2-2-2---2-2-|-4-----|---5-----------5---5-----5----|---4-----------4---4-----4----|
a --0-0-0---0-0-0---0-0-|-4-----|-3-----3---------3------------|-2-----2---------2------------|
E --------3-------3-----|-2-0---|------------------------------|------------------------------|

Riff 1e     Riff 2a                     Chorus Riff
e -------2-|---------------------------|--------------------------------------------------------|
b ---------|---------------------------|-----------------------------6-----------5--------------|
g -2---2---|---------------------------|-5---------------7-----------5-----------4--------------|
d -2-2-----|---------------------------|-5---------------7-----------3-----------2--------------|
a -0-------|--------3------------3-----|-3---------------5--------------------------------------|
e ---------|--5-3-5---5-3--5-3-5---5-3-|--------------------------------------------------------|
                                         And the wheels keep rollin' and another mile post gone
[ Tab from: ]
                                    2:47                      Pre solo       4x Pre Solo 2
e ---------------------------------|-------------------------|-----------------|---------------10-8----|
b ---------------------------------|-------------------------|-8h10-10-10p8h10-|-8h10-10-8-10b------10r|
g -5---------7------------------2--|-------------------------|-----------------|-----------------------|
d -5---------7------------------2--|-----------5-7-----------|-----------------|-----------------------|
a -3---------5------------------0--|-----5-7-5-----8---------|-----------------|-----------------------|
e ---------------------------------|-5-8---------------------|-----------------|-----------------------|
   All alone on the road behind   ...I scraped you in my arms

Pre Solo 2: on the b string when you bend that 10th fret hold the 
bend until the 'r' at the end of that section 

Solo: I'm not sure what Balsac was doing here...Just put in some 
Double stop notes(two notes played together)
on the bottom e and b strings

Solo End
e -17-15-17-20-17-15-|
b -------------------|

  The other Riff 2a
e ---------------------------|
b ---------------------------|
g ---------------------------|
d ---------------------------|
a --------3-----------3-5-7--|
e --5-3-5---5-3-5-3-5--------|

Last Notes
e -----------5----------------|
b ---------5------------------|
g -------4--------------------|
d -----7----------------------|
a ---7------------------------|
e -5--------------------------|
  sad whale baby

Ok well thats it for this song if you can't figure it out from there 
then you must have some problem and don't deserve a guitar...and as 
promised here is the 2nd half of Love Surgery, it is pretty easy it 
just has some weird effect that throws people off but the notes are 
right this is also Tuned down a half step

e -------------------------------|
b -------------------------------|
g -8^^^^^^-7--5--4--3------------|
d -8^^^^^^-7--5--4--3------------|
a -6^^^^^^-5--3--2--1------------|
e -------------------------------|

e -------------------------------|
b -------------------------------|
g ---10\-9-9\8----10--9--7-------|
d ---10\-9-9\8----10--9--7-------|
a ---8-\-7-7\6----8---7--5-------|
e -0-----------------------------|

e -------------|-----7---------------|
b -8-7-7-6-6-5-|-8-7---7-6-6-5-------|