Gwar - Lost God Chords & Tabs

 

Lost God Chords & Tabs

Gwar Chords & Tabs

Version: 1 Type: Tab 0 ratings
1 star 2 stars 3 stars 4 stars 5 stars
comments

Lost God Tab

   
This is my tab of Lost God. It's my first tab so there might be some mistakes. A slow, 
tune, not too hard to play. GWAR tunes down to E flat.
 Intro
 e|--------------------------------||
 B|--------------------------------||
 G|--------------------------------||
 D|-------4---------4-------4---5--||
 A|-2-4-5-2-4-5-2-4-2-5-4-2-2-5-3--||
 E|-0-2-3---2-3-0-2---3-2-0---3----||
    . . .   . . . .   . . .   .

 Verse
 e|------------------------------------------||
 B|------------------------------------------||
 G|-----------5-5-5-5------------------------||
 D|-----------5-5-5-5---------------4--------||
 A|-2-2-2-2-2-3-3-3-3-4-4-4-4-2-4-5-2-2-4-5--||
 E|-0-0-0-0-0---------2-2-2-2-0-2-3---0-2-3--||
    . . . . .           . . .   . .   . .

 Pre-chorus
 e|------------------||
 B|------------------||
 G|------------------||
 D|---4-------4---5--||
 A|-2-2-5-4-2-2-5-3--||
 E|-0---3-2-0---3----||
    .   . . .   .

 Chorus
 e|------------------------------------------------------------------------|
 B|------------------------------------------------------------------------|
 G|-5-7-7-7-7-5-5-5-7-9-9-9-9---------5-7-7-7-7-5-5-5-5--------------------|
 D|-5-7-7-7-7-5-5-5-7-9-9-9-9---------5-7-7-7-7-5-5-5-5--------------------|
 A|-3-5-5-5-5-3-3-3-5-7-7-7-7-2-2-2---3-5-5-5-5-3-3-3-3-2-4-5-2-5-2-5------|
 E|---------------------------0-0-0---------------------0-2-3-0-3-0-3------|
                              . . .                     . . . . . . .
 e|------------------------------------------------------------------------||
 B|------------------------------------------------------------------------||
 G|-5-7-7-7-7-5-5-5-7-9-9-9-9---------5-7-7-7-7-5-5-5-5--------------------||
 D|-5-7-7-7-7-5-5-5-7-9-9-9-9---------5-7-7-7-7-5-5-5-5--------------------||
 A|-3-5-5-5-5-3-3-3-5-7-7-7-7-2-2-2---3-5-5-5-5-3-3-3-3-2-4-5-2-5-2-5------||
 E|---------------------------0-0-0---------------------0-2-3-0-3-0-3------||
                              . . .                     . . . .   .
[ Tab from: http://www.guitartabs.cc/tabs/g/gwar/lost_god_tab.html ]
 Interlude thingy
 e|-------------------------------------------------------------------------||
 B|-------------------------------------------------------------------------||
 G|-------------------------------------------------------------------------||
 D|-------------------------------------------------------------------------||
 A|-2-2-5-2-2-2-2-5-2-2-2-2-5-2-2-5-2-2-5-2-2-2-2-5-2-2-2-2-5-2-2-5-2-2-5---||
 E|-0-0-3-0-0-0-0-3-0-0-0-0-3-0-0-3-0-0-3-0-0-0-0-3-0-0-0-0-3-0-0-3-0-0-3---||ect
    . .   . . . .   . . . .   . .   . .   . . . .   . . . .   . .   . .
(not sure how many times to play this)

 Middle Part
 e|---------------------------------------------------|
 B|---------------------------------------------------|
 G|---------------------------------------------------|
 D|-----4~~-----------------------4~~-------7---------|
 A|-2~~-2~~-4~~-5-------2-----2~~-2~~-4~~-5-5-5-b4~~--|
 E|-0~~-----2~~-3-0-2-3---2---0~~-----2~~-3---3-b2~~--|

 e|------------------------------------------------------||
 B|------------------------------------------------------||
 G|------------------------------------------------------||
 D|-----4~~-----------------------4~~-----------4--------||
 A|-2~~-2~~-4~~-5-------2-----2~~-2~~-4~~-2-4-5-2-2-4-5--||
 E|-0~~-----2~~-3-0-2-3---2---0~~-----2~~-0-2-3---0-2-3--||
(this part might have some mistakes because its hard to pick out the parts with Flattus, 
and Beefcake playing three different things)

 Part before the solo
 e|-----------------------------------------------------------------------||
 B|-----------------------------------------------------------------------||
 G|-----------------------------------------------------------------------||
 D|-2---------2-----2-----------------2---------------5-5-5-5-5-8-8-8-7---||
 A|-0-2-2-2-2-0-2-2-0-2-2-2-2-2-2-2-2-0-2-2-2-2-2-2-2-5-5-5-5-5-8-8-8-7---||
 E|---0-0-0-0---0-0---0-0-0-0-0-0-0-0---0-0-0-0-0-0-0-3-3-3-3-3-6-6-6-5---||
      . . . .   . .   . . . . . . . .   . . . . . . .
  (just play this part over and over again a lot)

 Outro
 e|-----------------------------------------------|
 B|-----------------------------------------------|
 G|-----------------------------------------------|
 D|-------4---------4-------4---5~~~~-------------|
 A|-2-4-5-2-2-4-5-2-2-5-4-2-2-4-3~~~~-------------|
 E|-0-2-3---0-2-3-0---3-2-0---2-------------------|

 Well there it is. Pretty damn cool song. Those are all the riffs, I'm just too lazy to 
out the songflow. I'll see if I can type out the solo later. Hope you like it.

legend
~ = hold note
b = bend
. = palm mute

Vince
Comments