Gwar - I Hate Love Songs Chords & Tabs

 

I Hate Love Songs Chords & Tabs

Gwar Chords & Tabs

Version: 2 Type: Bass Tab 0 ratings
1 star 2 stars 3 stars 4 stars 5 stars
comments

I Hate Love Songs Bass Tab

gwar: I hate love songs
transcibed by jared titus
e-mail: thebassment@yahoo.com

intro
g-----------------
d-----------------
a-----5-5-4-------
e-2-2-------5-5-5-
[ Tab from: http://www.guitartabs.cc/tabs/g/gwar/i_hate_love_songs_btab_ver_2.html ]
verse
g---------------------------------------
d---------------------------------------
a----------4-4-4444-22221111-2-1-2-1-2--
e-2-2-2222-----------------------------2

chorus
g------------------------------------
d------------------------------------
a-6-6-66-6-4-4-44-4-7-7-77-7---------
e----------------------------7-7-77-7
Comments