Gwar - Black And Huge Chords & Tabs

 

Black And Huge Chords & Tabs

Gwar Chords & Tabs

Version: 2 Type: Bass Tab 0 ratings
1 star 2 stars 3 stars 4 stars 5 stars
comments

Black And Huge Bass Tab

   
			"Black and Huge"
                                by
                               GWAR

>From the album "Scumdogs of the Universe"
Transcribed by:  Jay Misch

         This is an easy song if you can play fast enough. Any questions or comments
 go to riotbass@aol.com. Tell me I did a good job. GWAR RULES! 
  

			Tune down 1/2 step.

                                               

                Intro
 G |-----------------------|
 D |-----------------------|
 A |-----------------------|
 E |-0-----0-----0-----0---|


                                             
                 Verse 
 G |-------------------------|
 D |-------------------------|
 A |-------------------------|
 E |-/5-00000000-4-5-3-4-0-0-|

[ Tab from: http://www.guitartabs.cc/tabs/g/gwar/black_and_huge_btab_ver_2.html ]
                         Chorus
 G |-----------------------------------------------|
 D |-----------------------------------------------|
 A |-----------------------------------------------|
 E |-5--5-5--5-5-5-3--3-3--3-3-3-1--1-1-1-0--0-0-0-|


                  
  G  |----------------------------|
  D  |----------------------------|             
  A  |----------------------------|  
  E  |--00003-00005-00003-0020023-|


            Guitar Solo
 G |-------------------------------|
 D |-------------------------------|
 A |-------------------------------|
 E |-0-0-0-0-0-0-0-1-1-1-1-1-1-1-1-|

     play this at end of solo
 G |----------------------------------------------|
 D |----------------------------------------------|
 A |----------------------------------------------|
 E |-3-2-3-4-3-4-5-4-5-6-5-6-7------0-0-0-0-0-0-0-|  

          Outro
 G |-------------------------------------------------------|
 D |-------------------------------------------------------|
 A |-------------------------------------------------------|
 E |-0-010-010-010-010-010-010-010-010-11111111-00000000---|



  
Comments