Gwar - Baby Raper Chords & Tabs

 

Baby Raper Chords & Tabs

Gwar Chords & Tabs

Version: 1 Type: Bass Tab 0 ratings
1 star 2 stars 3 stars 4 stars 5 stars
comments

Baby Raper Bass Tab

Baby Raper - GWAR (tabbed by: ryan b)

***rest for guitar***

Riff A: (twice)
A---------------------------------
E--77-766-655-544-433-322-233-355--

Riff B: (once)
A-----------------------
E--433-322-233-355-577--

***rest for guitar (0:16 - 0:24)***

Riff C: (once)
A----------------------55-4h55-599-9-----
E--77-5-77-5-77-5-77-7---------------55--

Riff D: (once)
A----------------------77-7-77-755-5-------
E--77-5-77-5-77-5-77-7---------------55-5--

Riff E: (once)
A-----------------------------------------10-10-10-99-9--
E--77-5-77-5-77-5-77-7-10-10-10-10-10--10----------------

Riff F: (once)
A--77-7-77-755-5--------
E-----------------55-5--
[ Tab from: http://www.guitartabs.cc/tabs/g/gwar/baby_raper_btab.html ]
Riff G: (4 times)
G-------------------------------------------------
D-----4444----------------------------------------
A--------------5--7777----------------------------
E--7--------5-----------5-(return to previous 7)--

***rest briefly (1:00) then pick slide into Riff H***

Riff H: (4 times)
A------66-9999----5555--7777----------------------------
E--77-----------5-------------5 (return to previous 7)--

Riff I: (once)
A-------------------------------------0-3-3333--------0---2--
E--7777--5-7777-5-77777777-5-77777777-----------3-222---3----

Riff J: (once)
A-----------------------0-3-3333--------0---2--
E--77777777--5-77777777-----------3-222---3----

Riff K: (once)
A-----------------------0-3-3333--------0-------------
E--77777777--5-77777777-----------3-222---3-22222222--

Riff L: (once)
A-----66-9999--
E--77----------

***break briefly (1:53)***

Riff C: (once)
Riff D: (once)
Riff E: (once)
Riff F: (once)
Riff G: (4 times)

Riff M: (once)
A-----------------------------------
E--7---6---5---4---3---2---1---0-1--


Comments