Guy Buddy - Five Long Years Chords & Tabs

 

Five Long Years Chords & Tabs

Guy Buddy Chords & Tabs

Version: 1 Type: Tab 0 ratings
1 star 2 stars 3 stars 4 stars 5 stars
comments

Five Long Years Tab

#----------------------------------PLEASE NOTE---------------------------------#
#This file is the author's own work and represents their interpretation of the #
#song. You may only use this file for private study, scholarship, or research. #
#------------------------------------------------------------------------------##
From: mklem@vax2.winona.msus.edu
Subject: TAB: Five Long Years - Buddy Guy

        This was one of my favorite songs off of Buddy Guy's album "Damn
Right I got the Blues."  It's an all time Buddy Guy classic so here is
Five Long Years.


-----------------------------------------------------------------------------
--------------8-----------------------------------------11-------------------
--------------9--------------------8--10b12/\/\/\/\--------10b12r10----------
-------7--10----10/\/\/\/\/\---10------------------------------------10------
---10------------------------------------------------------------------------
-----------------------------------------------------------------------------


-----------------------------------------------------------------------------
--/8\-------11b13/\/\/\/\/---11--8------------------------------------/8-----
--/9\-------------------------------10----8---------------------------/9-----
----------------------------------------------10--------------7--10----------
----------------------------------------------------------10-----------------
-----------------------------------------------------------------------------


-------8--8--10b11r10--8------8---------8--10b11r10b11------18---------------
---/10--------------------10-------/10-------------------------18b20--18--16-
-----------------------------------------------------------------------------
-----------------------------------------------------------------------------
-----------------------------------------------------------------------------
-----------------------------------------------------------------------------


-----------------------17b18---15---17b18r17---------------------------------
-----------------------17b18-----------------18b20r18--16------------ 16/20--
--17--17-------14-----------------------------------------17-17----17--------
----------------------------------------------------------------19-----------
-----------------------------------------------------------------------------
-----------------------------------------------------------------------------

---18---15---15b18r15--------------------------------------------------------
------------------------18b20r18---18--16------------------16b20r16b19/\/\/\/
-------------------------------------------17----14---17---------------------
-----------------------------------------------------------------------------
-----------------------------------------------------------------------------
-----------------------------------------------------------------------------

-------8---------------------------------------------------------------------
----/8-----------------------------------------------------------------------
--------------10--8--------------10--8------8-------------------8------------
---------------------10-----------------10-----10------------------10--------
-----------------------------------------------------------------------------
-----------------------------------------------------------------------------

                                                      
section I
-----------------------------------------------------------------------------
---------------------/11-----------------------------------------------------
---------------------/12-----------------------------------------------------
---------------------------------10p8----------------------------------------
---------------------------------------10--10--------------------------------
-----------------------------------------------------------------------------

[ Tab from: http://www.guitartabs.cc/tabs/g/guy_buddy/five_long_years_tab.html ]
---------------------11--------13b15--11-------------------------------------
----10b11----11--13------13---------------13-------11------------------------
----11b12--------------------------------------12-----12-12-10-------10------
---------------------------------------------------------------13-10----13---
-----------------------------------------------------------------------------
-----------------------------------------------------------------------------

                                                 

-----------------------------------------------------------------------------
-----------------------------------------------------------10b11-10b11-------
----------------------------------------------------------------------10-8---
---------------------------------------------------------------------------10
-----------------------------------------------------------------------------
-----------------------------------------------------------------------------



--------8----------8---------------------------------------------------------
------8---8--11------11-8----------------------------------------------------
---10---------------------10b12-10-8-----------------------------------------
-------------------------------------10-8------------------------------------
-----------------------------------------------------------------------------
-----------------------------------------------------------------------------

                                   

-----------------------------------------------------------------------------
-----------------------------------------------------------------------------
--------------------------------------------10--8----------------------------
--------------------------------------------------10-10----------------------
-----------------------------------------------------------------------------
-----------------------------------------------------------------------------



Section II:
-----------------------------------------------------------------------------
-----------------------------------------------------------------------------
------------------------10b12-10p8-------------------------------------------
-----------------------------------10-------------------------10b12-10p8-----
-------------------------------------------------------------------------10-8
-----------------------------------------------------------------------------



-----------------------------------------------------------------------------
--------------------------------------------------------10--8--10--8--10-----
-----------------------------------------------------------------------------
-----------------------------------------------------------------------------
-----------------------------------------------------------------------------
-----------------------------------------------------------------------------




-----------------------------------------------------------------------------
-----------------------------------------------------------------------------
-----------------------------------------------------------------------------
--------------10---8---------------------------------------------------------
-----------------------------------------------------------------------------
-----------------------------------------------------------------------------




-----------------------------------------------------------------------------
----11r10-------11r10--8-------------------11r10-----8-----------------------
-------------------------10--8-------------------------10--8-----------------
--------------------------------10---------------------------10--------------
-----------------------------------------------------------------------------
-----------------------------------------------------------------------------

                                                               I work

-------------------------------------------|---------------------------------
-------------------------------------------|---------------------------------
-----------------------------8-------------|-
Comments