Guttermouth - What S The Big Deal Chords & Tabs

 

What S The Big Deal Chords & Tabs

Guttermouth Chords & Tabs

Version: 1 Type: Tab 0 ratings
1 star 2 stars 3 stars 4 stars 5 stars
comments

What S The Big Deal Tab

***********************************************
***********************************************
***Artist: Guttermouth                      ***
***Song: What's The Big Deal                ***
***Album: Musical Monkey                    ***
***Tunning: Standard                        ***
***By: Victor Aguilar                       ***
***The_Dark_Powerful_And_Evil_Lord@yahoo.com***
***www.junkmonkey.cjb.net                   ***
***********************************************
***********************************************

Pretty easy song i'm sure this tab is 98% correct.
E-mail me if you find any errors, if you have any corrections
or if you just want to cyber. 
Have Fun...

( ):  harmonic note
  \:  slide down  
  /:  slide up 
  x:  mute
 PM: palm mute, "." under note to palm mute on


INTRO:
|--------------------------------|
|--------------------------------|
|--------------------------------|
|--------------------------------|
|--------------------------------|
|-9-9--9-9-9--9--9/7-7/5-5/3-3/1-|


VERSE:
|------------------------------------------------------|
|------------------------------------------------------|
|-------------------------6--------------------------5-|
|-8-8--8-8-8--8-5-5--5-5--6--8-8--8-8-8--8-4-4--4-4--5-|
|-8-8--8-8-8--8-5-5--5-5--4--8-8--8-8-8--8-4-4--4-4--3-|
|-6-6--6-6-6--6-3-3--3-3-----6-6--6-6-6--6-2-2--2-2----|

|-------------------------------------|Sustain Last
|-------------------------------------|Two Notes
|------------------------------2----8-|
|-8-8--8-8-8--8-5-5--5-5-5--5--2----8-|
|-8-8--8-8-8--8-5-5--5-5-5--5--0----6-|
|-6-6--6-6-6--6-3-3--3-3-3--3---------|

|------------------------------------------------------|
|------------------------------------------------------|
|-------------------------6--------------------------5-|
|-8-8--8-8-8--8-5-5--5-5--6--8-8--8-8-8--8-4-4--4-4--5-|
|-8-8--8-8-8--8-5-5--5-5--4--8-8--8-8-8--8-4-4--4-4--3-|
|-6-6--6-6-6--6-3-3--3-3-----6-6--6-6-6--6-2-2--2-2----|

|-----------------------------------------|
|-----------------------------------------|
|------------------------------2----------|
|-8-8--8-8-8--8-5-5--5-5-5--5--2----------|
|-8-8--8-8-8--8-5-5--5-5-5--5--0--7-5-3-2-|
|-6-6--6-6-6--6-3-3--3-3-3--3-------------|


CHORUS:
|-------------|4 TIMES
|-------------|
|----9--------|
|-7--9--5--7--|
|-7--7--5--7--|
|-5-----3--5--|


INTURLUDE:
|---------------------------------|
|---------------------------------|
|------9------7------9----------7-|
|-7-7--9-7-7--7-7-7--9-7-7--7-7-7-|
|-7-7--7-7-7--5-7-7--7-7-7--7-7-5-|
|-5-5----5-5----5-5----5-5--5-5---|
PM. .    . .    . .    . .  . .

|----------------------------------------------------------------|
|----------------------------------------------------------------|
|-------------------------7-7--9--------------------------7-7--7-|
|-7-7--7-7-7--7-5-5--5-5--7-7--9--7-7--7-7-7--7-5-5--5-5--7-7--7-|
|-7-7--7-7-7--7-5-5--5-5--5-5--7--7-7--7-7-7--7-5-5--5-5--5-5--5-|
|-5-5--5-5-5--5-3-3--3-3----------5-5--5-5-5--5-3-3--3-3---------|
PM. .  . . .  . . .  . .  . .     . .  . . .  . . .  . .  . .
[ Tab from: http://www.guitartabs.cc/tabs/g/guttermouth/what_s_the_big_deal_tab.html ]
|------------------------------------|---|PLAY LAST
|------------------------------------|---|NOTE ABOUT 
|-------------------------7-7--7-7-7-|-9-|8 TIMES
|-7-7--7-7-7--7-5-5--5-5--7-7--7-7-7-|-9-|
|-7-7--7-7-7--7-5-5--5-5--5-5--5-5-5-|-7-|
|-5-5--5-5-5--5-3-3--3-3-------------|---|
PM. .  . . .  . . .  . .  . .     


SOLO:
|------------------------------------------------------------|PLAY THIS WHILE THE
|------------------------------------------------------------|OTHER GUITAR PLAYS
|------------------------------------------------------------|VERSE
|------------------------------------------------------------|
|-7-5-7-8--7-7-7-7-7-7-7-7-7-7--7-8-7-5--7-7-7-7-7-7-7-7-7-7-|
|------------------------------------------------------------|

|--------------------------------------------------|
|--------------------------------------------------|
|--------------------------------------------------|
|------------------------------------------------7-|
|-5/7-5-3-2--7-7-7-7-7-7-7-7-7-7--7-8-7-5--7-8-5---|
|--------------------------------------------------|

|----------------------------------------------------|
|----------------------------------------------------|
|----------------------------------------------------|
|-7--------------------------------------------------|
|--7-7-7-7-7-7-7-7-7-7--7-8-7-5--7-7-7-7-7-7-7-7-7-7-|
|----------------------------------------------------|

|--------------------------------------------------|
|--------------------------------------------------|
|--------------------------------------------------|
|------------------------------------------------7-|
|-5/7-5-3-2--7-7-7-7-7-7-7-7-7-7--7-8-7-5--7-8-5---|
|--------------------------------------------------|


CHORUS:
|-------------|4 TIMES
|-------------|
|----9--------|
|-7--9--5--7--|
|-7--7--5--7--|
|-5-----3--5--|


NEXT PART
|-------------|LISTEN TO SONG
|-------------|TO FIND OUT HOW
|----9------9-|LONG TO SUSTAIN
|-7--9-7--7-9-|EACH NOTE
|-7--7-7--7-7-|
|-5----5--5---|


VERSE:
|------------------------------------------------------|
|------------------------------------------------------|
|-------------------------6--------------------------5-|
|-8-8--8-8-8--8-5-5--5-5--6--8-8--8-8-8--8-4-4--4-4--5-|
|-8-8--8-8-8--8-5-5--5-5--4--8-8--8-8-8--8-4-4--4-4--3-|
|-6-6--6-6-6--6-3-3--3-3-----6-6--6-6-6--6-2-2--2-2----|
PM                                              . .
|-------------------------------------|Sustain Last
|-------------------------------------|Two Notes
|------------------------------2----8-|
|-8-8--8-8-8--8-5-5--5-5-5--5--2----8-|
|-8-8--8-8-8--8-5-5--5-5-5--5--0----6-|
|-6-6--6-6-6--6-3-3--3-3-3--3---------|

|------------------------------------------------------|
|------------------------------------------------------|
|-------------------------6--------------------------5-|
|-8-8--8-8-8--8-5-5--5-5--6--8-8--8-8-8--8-4-4--4-4--5-|
|-8-8--8-8-8--8-5-5--5-5--4--8-8--8-8-8--8-4-4--4-4--3-|
|-6-6--6-6-6--6-3-3--3-3-----6-6--6-6-6--6-2-2--2-2----|

|-----------------------------------------|
|-----------------------------------------|
|------------------------------2----------|
|-8-8--8-8-8--8-5-5--5-5-5--5--2----------|
|-8-8--8-8-8--8-5-5--5-5-5--5--0--7-5-3-2-|
|-6-6--6-6-6--6-3-3--3-3-3--3-------------|


CHORUS:
|-------------|4 TIMES
|-------------|
|----9--------|
|-7--9--5--7--|
|-7--7--5--7--|
|-5-----3--5--|


THAT'S IT.











Comments