Guttermouth - Thats Life Chords & Tabs

 

Thats Life Chords & Tabs

Guttermouth Chords & Tabs

Version: 3 Type: Tab 0 ratings
1 star 2 stars 3 stars 4 stars 5 stars
comments

Thats Life Tab

*GUTTERMOUTH*

*THAT'S LIFE*

*COVERED IN ANTS*

Tabbed by:Robert Johnstone

Keys:
X-PALM MUTE
S-SLIDE

The song goes in this order!                       REPEAT 3 TIMES
e-------------------------------------------------------------------------------------|
B-------------------------------------------------------------------------------------|
G----------------------------6-------6---------7--------------------------------------|
D----------5------------6---------6--------7------------------------------------------|
A------5------------4----------4--------5---------------------------------------------|
E---3---------------------------------------------------------------------------------|

E--------------------------------------------------------------------------------------|
B--------------------------------------------------------------------------------------|
G---------------------6--------6--------7--------6-------------------------------------|
D---------5-------6---------6-------7--------6-----------------------------------------|
A------5-------4---------4-------5--------4--------------------------------------------|
E---3----------------------------------------------------------------------------------|

E------------------------------------------------------------------------------------------------|
B------------------------------------------------------------------------------------------------|
G----------------------------6-------6---------7------------------------6-----6------7--------6--|
D----------5------------6---------6--------7-------------------5-----6-----6------7-------6------|
A------5------------4----------4--------5------------------5------4------4-----5------4----------|
E---3--------------------------------------------------3-----------------------------------------|

E--------------------------------------------------------------------------|
B--------------------------------------------------------------------------|
G--------------6------6--------7------------------6-------6------6------6--|
D------5----6------6-------7------------5-----6-------6------6-------6-----|
A----5----4------4------5------------5-----4-------4-------4------4--------|
E--3-------------------------------3---------------------------------------|

         The girls look very sad................
E------------------------------------------------------------------------------------------------|
B------------------------------------------------------------------------------------------------|
G---------------------------------------------------------------------6------S-------7--------6--|
D---------X----------X----------X---------X----------X-------6------S-------7--------6-----------|
A-----X----------X---------X---------X-----------X--------4------S-------5-------4---------------|
E--X---------X---------X----------X----------X---------------------------------------------------|

E------------------------------------------------------------------------------------------------|
B------------------------------------------------------------------------------------------------|
G----------------------------6-------6---------7------------------------6-----6------7--------6--|
D----------5------------6---------6--------7-------------------5-----6-----6------7-------6------|
A------5------------4----------4--------5------------------5------4------4-----5------4----------|
E---3--------------------------------------------------3-----------------------------------------|


E--------------------------------------------------------------------------|
B--------------------------------------------------------------------------|
G--------------6------6--------7------------------6-------6------6------6--|
D------5----6------6-------7------------5-----6-------6------6-------6-----|
A----5----4------4------5------------5-----4-------4-------4------4--------|
E--3-------------------------------3---------------------------------------|

E------------------------------------------------------------------------------------------------|
B------------------------------------------------------------------------------------------------|
G----------------------------6-------6---------7------------------------6-----6------7--------6--|
D----------5------------6---------6--------7-------------------5-----6-----6------7-------6------|
A------5------------4----------4--------5------------------5------4------4-----5------4----------|
E---3--------------------------------------------------3-----------------------------------------|

E--------------------------------------------------------------------------|
B--------------------------------------------------------------------------|
G--------------6------6--------7------------------6-------6------6------6--|
D------5----6------6-------7------------5-----6-------6------6-------6-----|
A----5----4------4------5------------5-----4-------4-------4------4--------|
E--3-------------------------------3---------------------------------------|

E------------------------------------------------------------------------------------------------|
B------------------------------------------------------------------------------------------------|
G---------------------------------------------------------------------6------S-------7--------6--|
D---------X----------X----------X---------X----------X-------6------S-------7--------6-----------|
A-----X----------X---------X---------X-----------X--------4------S-------5-------4---------------|
E--X---------X---------X----------X----------X---------------------------------------------------|

E---------------------------------------------------------------------------------------------|
B---------------------------------------------------------------------------------------------|
G---------------------------------------------------------------------------------------------|
D-------------5-------------5------------5------------5------------5-------5---------------5--|
A--------5-------------5------------5-----------5--------------5-------5----------------5-----|
E---3--------------3------------3-----------3--------------3--------3--------------3----------|


PTO->


REPEAT THE SECTIONS WITH STARS 4 TIMES PLUS THIS ONE=5 TIMES
E------------------------------------------------------------------------------------------------|
B------------------------------------------------------------------------------------------------|
G----------------------------6-------6---------7------------------------6-----6------7--------6--|
D----------5------------6---------6--------7-------------------5-----6-----6------7-------6------|
A------5------------4----------4--------5------------------5------4------4-----5------4----------|
E---3--------------------------------------------------3----------------------------------------|
[ Tab from: http://www.guitartabs.cc/tabs/g/guttermouth/thats_life_tab_ver_3.html ]
E--------------------------------------------------------------------------|
--------------------------------------------------------------------------|
G--------------6------6--------7------------------6-------6------6------6--|
D------5----6------6-------7------------5-----6-------6------6-------6-----|
A----5----4------4------5------------5-----4-------4-------4------4--------|
E--3-------------------------------3---------------------------------------|

e-------------------------------------------------------------------------------------|
B-------------------------------------------------------------------------------------|
G----------------------------6-------6---------7--------------------------------------|
D----------5------------6---------6--------7------------------------------------------|
A------5------------4----------4--------5---------------------------------------------|
E---3---------------------------------------------------------------------------------|

E--------------------------------------------------------------------------------------|
B--------------------------------------------------------------------------------------|
G---------------------6--------6--------7--------6-------------------------------------|
D---------5-------6---------6-------7--------6-----------------------------------------|
A------5-------4---------4-------5--------4--------------------------------------------|
E---3----------------------------------------------------------------------------------|

                             REPEAT 4 TIMES
E---------------------------------------------------------------------------------------------------|
B---------------------------------------------------------------------------------------------------|
G---------------------------------------------------------6------6------6-----6-----6-----6------6--|
D------5-----5-----5-----5------5-----5-------5----6-------6------6-----6-----6-----6------6--------|
A----5-----5-----5-----5------5----5-------5-----4-------4------4-----4-----4-----4------4----------|
E--3-----3-----3-----3-----3-----3------3-----------------------------------------------------------|

E------------------------------------------------------------------------------------------------|
B------------------------------------------------------------------------------------------------|
G------------------------------------------------------------------------------------------------|
D-------------5-------------5------------5------------5------------5-------5---------------5-----|
A--------5-------------5------------5-----------5--------------5-------5----------------5--------|
E---3--------------3------------3-----------3--------------3--------3--------------3-------------|
E------------------------------------------------------------------------------------------------|
B------------------------------------------------------------------------------------------------|
G----------------------------6-------6---------7------------------------6-----6------7--------6--|
D----------5------------6---------6--------7-------------------5-----6-----6------7-------6------|
A------5------------4----------4--------5------------------5------4------4-----5------4----------|
E---3--------------------------------------------------3-----------------------------------------|

E---------------------------------------------------------------------------------------------|
B---------------------------------------------------------------------------------------------|
G---------------------------------------------------------------------------------------------|
D-------------5-------------5------------5------------5------------5-------5---------------5--|
A--------5-------------5------------5-----------5--------------5-------5----------------5-----|
E---3--------------3------------3-----------3--------------3--------3--------------3----------|

E------------------------------------------------------------------------------------------------|
B------------------------------------------------------------------------------------------------|
G----------------------------6-------6---------7------------------------6-----6------7--------6--|
D----------5------------6---------6--------7-------------------5-----6-----6------7-------6------|
A------5------------4----------4--------5------------------5------4------4-----5------4----------|
E---3--------------------------------------------------3-----------------------------------------|

E---------------------------------------------------------------------------------------------|
B---------------------------------------------------------------------------------------------|
G---------------------------------------------------------------------------------------------|
D-------------5-------------5------------5------------5------------5-------5---------------5--|
A--------5-------------5------------5-----------5--------------5-------5----------------5-----|
E---3--------------3------------3-----------3--------------3--------3--------------3----------|

E------------------------------------------------------------------------------------------------|
B------------------------------------------------------------------------------------------------|
G----------------------------6-------6---------7------------------------6-----6------7--------6--|
D----------5------------6---------6--------7-------------------5-----6-----6------7-------6------|
A------5------------4----------4--------5------------------5------4------4-----5------4----------|
E---3--------------------------------------------------3-----------------------------------------|

E---------------------------------------------------------------------------------------------|
B---------------------------------------------------------------------------------------------|
G---------------------------------------------------------------------------------------------|
D-------------5-------------5------------5------------5------------5-------5---------------5--|
A--------5-------------5------------5-----------5--------------5-------5----------------5-----|
E---3--------------3------------3-----------3--------------3--------3--------------3----------|

E------------------------------------------------------------------------------------------------|
B------------------------------------------------------------------------------------------------|
G----------------------------6-------6---------7------------------------6-----6------7--------6--|
D----------5------------6---------6--------7-------------------5-----6-----6------7-------6------|
A------5------------4----------4--------5------------------5------4------4-----5------4----------|
E---3--------------------------------------------------3-----------------------------------------|

 REPEAT THIS AGAIN THE FADE OUT ON THE IT

WELL THAT'S ALL SO GOOD LUCK PLAYING,IT'S A VERY EASY SONG.IF YOU GOT ANY NOFX OR KIEF 
TABS PLEASE SEND EM IN!IT'S A EASY SONG FROM A GREAT BAND OFF A GREAT ALBUM., OH AND BY 
WAY IM FROM SOUTH AFRICA!!!!
Comments