Guttermouth - Thats Life Chords & Tabs

 

Thats Life Chords & Tabs

Guttermouth Chords & Tabs

Version: 1 Type: Tab 0 ratings
1 star 2 stars 3 stars 4 stars 5 stars
comments

Thats Life Tab

   
---------------------------------------------------------------------------
			     That's Life - Guttermouth
---------------------------------------------------------------------------

By: Robin Krier 
Album: Covered With Ants (Epitaph)

Guttermouth...now that's good stuff!
[ Tab from: http://www.guitartabs.cc/tabs/g/guttermouth/thats_life_tab.html ]
 Intro	 x3
e|-------------|-------------|
B|-------------|-------------|
G|------7--6-7-|-----7-6-7---|
D|-5----7--6-7-|-5---7-6-7-8-|
A|-5----5--4-5-|-5---5-4-5-8-|
E|-3-----------|-3---------6-|
   ^
  chorus
e|-------------------------------------------------|
B|-------------------------------------------------|
G|----7--6-7-----7-6-7-------7--6-7----------7-7-7-|
D|-5--7--6-7--5--7-6-7-8--5--7--6-7--8--8--8-7-7-7-|
A|-5--5--4-5--5--5-4-5-8--5--5--4-5--8--8--8-5-5-5-|
E|-3----------3--------6--3----------6--6--6-------|
  
 verse                   x4		 
e|------------------------|
B|------------------------|
G|---------------------6--|
D|-5--5-5--5-5--5-5--8-6--|
A|-5--5-5--5-5--5-5--8-4--|
E|-3--3-3--3-3--3-3--6----|
 PM|--------------|
 
 "I get around!"  x7
e|-----------------|---------------|
B|-----------------|---------------|
G|----------3---6--|---------7-6-7-|
D|-5-5-5-5--x-\-x--|--8--8---7-6-7-|
A|-5-5-5-5--1-\-4--|--8--8---5-4-5-|
E|-3-3-3-3---------|--6--6---------|
			    ^  ^
chorus

 Play intro again before this part...x4
e|-----------------------------------|
B|-----------------------------------|
G|-----------------6-6-6-6-6-6-6-6-6-|
D|-5-5-5-5-5-5-5-5-6-6-6-6-6-6-6-6-6-|
A|-5-5-5-5-5-5-5-5-4-4-4-4-4-4-4-4-4-|
E|-3-3-3-3-3-3-3-3-------------------|

-"I get around..."
-chorus bunch of times
  tinkly notes during the outro...
e|----------------------------------|
B|-------------3-----2--3---repeat--|
G|-----0--3--0----0-----------------|
D|--0-------------------------------|
A|----------------------------------|
E|----------------------------------|

Comments