Guttermouth - Shes Got The Look Chords & Tabs

 

Shes Got The Look Chords & Tabs

Guttermouth Chords & Tabs

Version: 3 Type: Tab 0 ratings
1 star 2 stars 3 stars 4 stars 5 stars
comments

Shes Got The Look Tab

*Guttermouth*

*She's got the look*

*Covered with ants*
Transcriber: Robert Johnstone
Standard tuning

This is the best song from the album and the 2nd best album out of the 3 I have heard,
Teri Yakimoto, Covered with ants and Gusto, the music video is pretty rad as well, check
it out on the Punk-O-Rama Vol.1 DVD.
The intro is very tricky

Intro (Clean, no distortion)
E-------------------------------|
B-------------------------------|
G-------------------------------|
D---9-9-s-6-6-s-4-4-------------|
A---9-9-s-6-6-s-4-4-------------|
E---7-7-s-4-4-s-2-2-------------|

 She likes to read I like T.V.
E-------------------------------------------------------|
B-------------------------------------------------------|
G-------------------------------------------------------|
D---9-9-9-----6-6-6-----4-4-4-4-----6-6-6-6-6-----------|
A---9-9-9-----6-6-6-----4-4-4-4-----6-6-6-6-6-----------|
E---7-7-7-----4-4-4-----2-2-2-2-----4-4-4-4-4-----------|
       * * *        * *  *        *  * * *        * * *  * *

She likes a beer I like a shot
E-------------------------------------------------------|
B-------------------------------------------------------|
G-------------------------------------------------------|
D---9-9-9-----6-6-6-----4-4-4-4-----6-6-6-6-6-----------|
A---9-9-9-----6-6-6-----4-4-4-4-----6-6-6-6-6-----------|
E---7-7-7-----4-4-4-----2-2-2-2-----4-4-4-4-4-----------|
       * * *        * *  *        *  * * *        * * *  * *

(Distortion) She like the boys in the band
E-------------------------------------------------------|
B-------------------------------------------------------|
G-------------------------------------------------------|
D---9-9-9-----6-6-6-----4-4-4-4-----6-6-6-6-6-----------|
A---9-9-9-----6-6-6-----4-4-4-4-----6-6-6-6-6-----------|
E---7-7-7-----4-4-4-----2-2-2-2-----4-4-4-4-4-----------|

I like to drive she like to walk
E-------------------------------------------------------|
B-------------------------------------------------------|
G-------------------------------------------------------|
D---9-9-9-----6-6-6-----4-4-4-4-----6-6-6-6-6-----------|
A---9-9-9-----6-6-6-----4-4-4-4-----6-6-6-6-6-----------|
E---7-7-7-----4-4-4-----2-2-2-2-----4-4-4-4-4-----------|
       * * *        * *  *        *  * * *        * * *  * *

I like to drink she likes to dance
E-------------------------------------------------------|
B-------------------------------------------------------|
G-------------------------------------------------------|
D---9-9-9-----6-6-6-----4-4-4-4-----6-6-6-6-6-----------|
A---9-9-9-----6-6-6-----4-4-4-4-----6-6-6-6-6-----------|
E---7-7-7-----4-4-4-----2-2-2-2-----4-4-4-4-4-----------|
       * * *        * *  *        *  * * *        * * *  * *

(Distortion) She like the boys in the band
E-------------------------------------------------------|
B-------------------------------------------------------|
G-------------------------------------------------------|
D---9-9-9-----6-6-6-----4-4-4-4-----6-6-6-6-6-----------|
A---9-9-9-----6-6-6-----4-4-4-4-----6-6-6-6-6-----------|
E---7-7-7-----4-4-4-----2-2-2-2-----4-4-4-4-4-----------|
[ Tab from: http://www.guitartabs.cc/tabs/g/guttermouth/shes_got_the_look_tab_ver_3.html ]
(Distortion) For you I'd do it...
E-------------------------------------------------------|
B-------------------------------------------------------|
G-------------------------------------------------------|
D---9-9-9-----6-6-6-----4-4-4-4-----6-6-6-6-6-----------|
A---9-9-9-----6-6-6-----4-4-4-4-----6-6-6-6-6-----------|
E---7-7-7-----4-4-4-----2-2-2-2-----4-4-4-4-4-----------|


(Distortion) For you for you
E-------------------------------------------------------|
B-------------------------------------------------------|
G-------------------------------------------------------|
D---9-9-9-----6-6-6-----4-4-4-4-----6-6-6-6-6-----------|
A---9-9-9-----6-6-6-----4-4-4-4-----6-6-6-6-6-----------|
E---7-7-7-----4-4-4-----2-2-2-2-----4-4-4-4-4-----------|

Solo
E---------------------------------------------------------------------|
B---------------------------------------------------------------------|
G--7-7-7--9-9-----7-7-7--9-9--11-----7-7-7--9-9-7h9-7-----------------|2x
D---------------------------------------------------------------------|
A---------------------------------------------------------------------|
E---------------------------------------------------------------------|

E--------------------------------------------|
B--12-12-12-12-12-12--14-10-8-8--------------|
G--------------------------------------------|
D--------------------------------------------|
A--------------------------------------------|
E--------------------------------------------|

She like to kiss, I'd rather....
E-------------------------------------------------------|
B-------------------------------------------------------|
G-------------------------------------------------------|
D---9-9-9-----6-6-6-----4-4-4-4-----6-6-6-6-6-----------|
A---9-9-9-----6-6-6-----4-4-4-4-----6-6-6-6-6-----------|
E---7-7-7-----4-4-4-----2-2-2-2-----4-4-4-4-4-----------|
       * * *        * *  *        *  * * *        * * *  * *

And all her friends call me smuck a smuck....
E-------------------------------------------------------|
B-------------------------------------------------------|
G-------------------------------------------------------|
D---9-9-9-----6-6-6-----4-4-4-4-----6-6-6-6-6-----------|
A---9-9-9-----6-6-6-----4-4-4-4-----6-6-6-6-6-----------|
E---7-7-7-----4-4-4-----2-2-2-2-----4-4-4-4-4-----------|
       * * *        * *  *        *  * * *        * * *  * *

(Distortion) She likes the boys in the band
E-------------------------------------------------------|
B-------------------------------------------------------|
G-------------------------------------------------------|
D---9-9-9-----6-6-6-----4-4-4-4-----6-6-6-6-6-----------|
A---9-9-9-----6-6-6-----4-4-4-4-----6-6-6-6-6-----------|
E---7-7-7-----4-4-4-----2-2-2-2-----4-4-4-4-4-----------|

I'll wash my car, get a job
E-------------------------------------------------------|
B-------------------------------------------------------|
G-------------------------------------------------------|
D---9-9-9-----6-6-6-----4-4-4-4-----6-6-6-6-6-----------|
A---9-9-9-----6-6-6-----4-4-4-4-----6-6-6-6-6-----------|
E---7-7-7-----4-4-4-----2-2-2-2-----4-4-4-4-4-----------|

(Distortion) For you I'd do it...
E-------------------------------------------------------|
B-------------------------------------------------------|
G-------------------------------------------------------|
D---9-9-9-----6-6-6-----4-4-4-4-----6-6-6-6-6-----------|
A---9-9-9-----6-6-6-----4-4-4-4-----6-6-6-6-6-----------|
E---7-7-7-----4-4-4-----2-2-2-2-----4-4-4-4-4-----------|

Keys:
*-palm mute
s-slide

That's the whole tab, click on the top of the page by my name for more of my Guttermouth 
Guttermouth have to be the most overlooked band as far as talents in concerned because
are busy buying their simple plan and good charlotte cd's simple plan are the worst band
and second is good charlotte! Everyone who says simple plan is punk sucks!
Comments