Guttermouth - Secure Horizons Chords & Tabs

 

Secure Horizons Chords & Tabs

Guttermouth Chords & Tabs

Version: 1 Type: Tab 0 ratings
1 star 2 stars 3 stars 4 stars 5 stars
comments

Secure Horizons Tab

----------------------------------------------------------------------------
			     Secure Horizons - Guttermouth
----------------------------------------------------------------------------

By: Robin J. Krier 
  
  Intro			      x3
e|-----------------------------|---------------------------------------------|
B|-----------------------------|---------------------------------------------|
G|-----7-\-9--------6-7-7-7-7--|------7-\-9--9-9-9---------------------------|
D|-9---7-\-9--7--7--6-7-7-7-7--|--9---7-\-9--9-9-9--7------------------------|
A|-9---5-\-7--7--7--4-5-5-5-5--|--9---5-\-7--7-7-7--7------------------------|
E|-7----------5--5-------------|--7-----------------5------------------------|
[ Tab from: http://www.guitartabs.cc/tabs/g/guttermouth/secure_horizons_tab.html ]
  The verse plays this with clean sound and full barre chord, verse with gain.
e|---------------------------------------------------------------------------|
B|---------------------------------------------------------------------------|
G|-----7-\-9--------6-7-7-7-7------------------------------------------------|
D|-9---7-\-9--7--7--6-7-7-7-7------------------------------------------------|
A|-9---5-\-7--7--7--4-5-5-5-5------------------------------------------------|
E|-7----------5--5-----------------------------------------------------------|

  Breakdown?	     x8 "Ring went the final bell..."	 		repeat
e|----------------------|----------------------------------------------------|
B|----------------------|----------------------------------------------------|
G|----------------------|------------------------------7--7-7-7-7-9-9-9-9-9-9|
D|-9-9-9-9-9-9-9-9-9-9--|-9--9-9-9-9-9-9--9--9-9-9-9-9-7--7-7-7-7-9-9-9-9-9-9|
A|-9-9-9-9-9-9-9-9-9-9--|-9--9-9-9-9-9-9--9--9-9-9-9-9-5--5-5-5-5-7-7-7-7-7-7|
E|-7-7-7-7-7-7-7-7-7-7--|-7--7-7-7-7-7-7--7--7-7-7-7-7-----------------------|
 PM|------------------|  Hard, dammit!

  "Now our mall..."	     x4
e|----------------------------|
B|----------------------------|
G|----5-\-7-------4-\-5-5-5-5-|
D|-7--5-\-7--5--5-4-\-5-5-5-5-|
A|-7--3-\-5--5--5-2-\-3-3-3-3-|
E|-5---------3--3-------------|

verse repeat a bunch of times
Comments