Guttermouth - Room For Improvement Chords & Tabs

 

Room For Improvement Chords & Tabs

Guttermouth Chords & Tabs

Version: 2 Type: Bass Tab 0 ratings
1 star 2 stars 3 stars 4 stars 5 stars
comments

Room For Improvement Bass Tab

Song: Room for improvement
Band: Guttermouth
Album: Teri Yakimoto
tabbed by: Carlos Pino

    verse
G:---------------------------------------------------------------
D:---------------------------------------------------------------
A:---------4-4-4--5-5-5--7-7-7-----------------------------
E:-5-5-5-------------------------------------------------------
[ Tab from: http://www.guitartabs.cc/tabs/g/guttermouth/room_for_improvement_btab_ver_2.html ]
    chorus
G:---------------------------------------------------------------
D:---------------------------------------------------------------
A:------7-7-7--5-5--5-5-5-5-------4-4-5-4---------------
E:-5-5----------------------------5-5------------5------------

   outro
G:---------------------------------------------------------------
D:---------------------------------------------------------------
A:------4-4--5-5-5--------------------------------------------
E:-5-5---------------5-----------------------------------------


Comments