Guttermouth - Marks Ark Chords & Tabs

 

Marks Ark Chords & Tabs

Guttermouth Chords & Tabs

Version: 1 Type: Bass Tab 0 ratings
1 star 2 stars 3 stars 4 stars 5 stars
comments

Marks Ark Bass Tab

Titre : Marks ark
Band : Guttermouth

#1

|--------------------------------------------|
|--------------------------------------------|
|---------5-7--------------------------------|
|-7-7-7-7-----5-5-5-5--3-5-------------------|

#2
[ Tab from: http://www.guitartabs.cc/tabs/g/guttermouth/marks_ark_btab.html ]
|--------------------------------------------|
|--------------------------------------------|
|--------------------------------------------|
|--5-5-7--5-7--5-7---------------------------|

#3

|-------------------------------||-----------|
|-------------------------------||-----------|
|-------------------------------||-----------|
|--7-7-7-7--3-5-----------------||----2-2----|


Comments