Guttermouth - Looking Good Is All That Matters Chords & Tabs

 

Looking Good Is All That Matters Chords & Tabs

Guttermouth Chords & Tabs

Version: 1 Type: Tab 0 ratings
1 star 2 stars 3 stars 4 stars 5 stars
comments

Looking Good Is All That Matters Tab

-----------------------------------------------------------------------------
		 Looking Good is All That Matters - Guttermouth
-----------------------------------------------------------------------------

By: Robin Krier 
Album: Covered With Ants (Epitaph)

Obviously played by two guitars, but I'm sure you can put it together.

 Lead intro			     x6 after 1st measure, 2nd comes in with..
e|------------------------------------|--------------------------------------|
B|------------------------------------|--------------------------------------|
G|---6-7-6----6-7-6-------------------|-------------9--7-7-7-7-7-------------|
D|-7--------7----------6-7-6----4-5-4-|-7--7-7-7-7--9--7-7-7-7-7-------------|
A|-------------------7--------5-------|-7--7-7-7-7--7--5-5-5-5-5-------------|
E|------------------------------------|-5--5-5-5-5---------------------------|
  For verse, play rhythm part x4
[ Tab from: http://www.guitartabs.cc/tabs/g/guttermouth/looking_good_is_all_that_matters_tab.html ]
  Chorus "Looking good..."     x2
e|------------------------------|--------------------------|-------------------|
B|------------------------------|--------------------------|-------------------|
G|---------------------7--7-7-7-|------------9--9-7--7-7-7-|---------------4---|
D|-7--7-7--7-7-7--5--5-7--7-7-7-|-7--7-7-7-7-9--9-7--7-7-7-|-7--7-7--5--5--4--5|
A|-7--7-7--7-7-7--5--5-5--5-5-5-|-7--7-7-7-7-7--7-5--5-5-5-|-7--7-7--5--5--2--5|
E|-5--5-5--5-5-5--3--3----------|-5--5-5-5-5---------------|-5--5-5--3--3-----3|
  
  verse with lead x4, verse x4, chorus
 
 Bridge			  x4 then on top of  
e|--------------------------|that...---------|-------------------|
B|--------------------------|10-10--9-9-9--9-|-------------------|
G|--------------------------|-9--9--8-7-7--8-|-9-9-9-9-9-9-9-9-9-|
D|-7--7-7--7-7--5--5-5--5-5-|----------------|-9-9-9-9-9-9-9-9-9-|
A|-7--7-7--7-7--5--5-5--5-5-|---------x7-----|-7-7-7-7-7-7-7-7-7-|
E|-5--5-5--5-5--3--3-3--3-3-|----------------|-^-^-^-^-^-^-^-^-^-|
 PM|-----------------------|			     

chorus, lead out
Comments