Guttermouth - Lock Down Chords & Tabs

 

Lock Down Chords & Tabs

Guttermouth Chords & Tabs

Version: 1 Type: Bass Tab 0 ratings
1 star 2 stars 3 stars 4 stars 5 stars
comments

Lock Down Bass Tab

"Lock Down" - Guttermouth
Tabbed by Matt Hamann

It took be a little while to figure this out.  There is another guitar/bass tab to this, but the bridge didn't exactly sound right, and the verse did not sound 100% either, so I decided to tab it out the way I thought it sounded right.

Verse:

A--7--7--7--7--------------7--5--3--0----7h8p7--5--
E--------------3--3--3--3--------------------------

Chorus:

A--2-2--2--2-2-2--2-2--2--2-2-2--2-2--2--2-2-2--2-2--3--3--
The fourth time around, it looks like this:
A--2-2--2--2-2-2--2-2--2--2-2-2--2-2--2--2-2-2--2-2-3-3-5-5--

Bridge intro:
[ Tab from: http://www.guitartabs.cc/tabs/g/guttermouth/lock_down_btab.html ]
D----------------------------------------------------10---------10-------9--
A--7-----7--14--12--9--10----------12--10--9------10---------10-------9-----
E-----7---------------------10--10-------------8----------7--------7--------

Bridge:

A--7-----7--14--12--9--10----------12--10--9--7-----7--14--12--9--10-----------12--10--9--
E-----7--------------------10--10----------------7---------------------10--10-------------

D----------------------------------------------------10-------10-------9--
A--7-----7--14--12--9--10-------10--12--10--9----10--------10-------9-----
E-----7---------------------10-----------------8---------7-------7--------

Verse outro (This occurs after the singing and during the time the solo is very distinct):

A--7--7--7--7--------------5--5--5--5--5--5--5--5--
E--------------3--3--3--3--------------------------

Website is at http://www.jps.net/matt1/index.html
E-mail at matt1@jps.net, or gartuck@hotmail.com

Comments