Guttermouth - Lipstick Chords & Tabs

 

Lipstick Chords & Tabs

Guttermouth Chords & Tabs

Version: 3 Type: Tab 0 ratings
1 star 2 stars 3 stars 4 stars 5 stars
comments

Lipstick Tab

-------------------------------Guttermouth----------------------------
_________________________________Lipstick_____________________________

This is my first tab that I actually made and I'm pissed that I had to,
but the other tabs for it on every site sucked ass.  I did this by ear
and it took about 2 hours all together.  I don't see how those others
can be so lazy. This one guy put this on low "E".1-1-4-4-5-5-7-7. He
says it the whole song, but I'm pretty sure there is a little more
to it. Well sorry I just had to get that off my chest even though
nobody will read it.  Well anyway, here's the tab.

STANDARD TUNING
E---------------------------------------------------------------------
B---------------------------------------------------------------------
G--9-9-------------------------------Play This------------------------
D--9-9--6-6--7-7--99999999------------4 Times-------------------------
A--7-7--6-6--7-7--99999999--------------------------------------------
E-------4-4--5-5--77777777--------------------------------------------

E---------------------------------------------------------------------
B---------------------------------------------------------------------
G--9-99-99----------------------------------------------Play-This-----
D--9-99-99--6-66-66--7-77-77--9-99-99--------------------4-Times------
A--7-77-77--6-66-66--5-55-55--7-77-77---------------------------------
E-----------4-44-44--5-55-55--7-77-77---------------------------------
 Solo
E---------------------------------------------------------------------
B---------------------------------------------------------------------
G--9---9-8----8-8h9-----9--11-11-11h13-11-----------------------------
D----9-----9---------11-----------------------------------------------
A---------------------------------------------------------------------
E---------------------------------------------------------------------

E---------------------------------------------------------------------
B---------------------------------------------------------------------
G--9---9-8----8-8h9---------------------------------------------------
D----9-----9---------7--7--9-9-7-7-9-9-6-6----------------------------
A---------------------------------------------------------------------
E---------------------------------------------------------------------

E---------------------------------------------------------------------
B---------------------------------------------------------------------
G---------------------------------------------------------------------
D--6---6-4------------------4-4-4h6-4---------------------------------
A----7-----6--6--6h7--4--4--------------------------------------------
E---------------------------------------------------------------------
[ Tab from: http://www.guitartabs.cc/tabs/g/guttermouth/lipstick_tab_ver_3.html ]
E---------------------------------------------------------------------
B---------------------------------------------------------------------
G---------------------------------------------------------------------
D--6---6-4------------------4-4-4-4-6-6-4-4---------------------------
A----7-----6--6--6h7--4--4--------------------------------------------
E---------------------------------------------------------------------
 After Bass Solo
E---------------------------------------------------------------------
B-----9----------4-----------5-----------7-----------Play-This--------
G-------9------4---4-------6---6-------8---8----------Twice-----------
D------------4-----------6-----------9--------------------------------
A--7-------6-----------7-----------9----------------------------------
E---------------------------------------------------------------------
 Play With Strings A Little
E---------------------------------------------------------------------
B---------------------------------------------------------------------
G--9--9-9-9---8--8-8-8---9--9-9-9---11-11-11-11---------Play-This-----
D--9--7-7-7---6--6-6-6---7--7-7-7---9--9--9--9------------Twice-------
A--7--7-7-7---6--4-4-4---5--5-5-5---9--9--9--9------------------------
E--0--0-0-0---4--4-4-4---5--5-5-5---7--7--7--7------------------------

E---------------------------------------------------------------------
B---------------------------------------------------------------------
G---------------------------------------------------------------------
D--2-22-22--6-66-66--7-77-77--9-99-99---------------------------------
A--2-22-22--6-66-66--7-77-77--9-99-99---------------------------------
E--0-00-00--4-44-44--5-55-55--7-77-77---------------------------------

E---------------------------------------------------------------------
B---------------------------------------------------------------------
G---------------------------------------------------------------------
D--2-22-22--6-66-66--7----9-9-9-9-------------------------------------
A--2-22-22--6-66-66--7----9-9-9-9-------------------------------------
E--0-00-00--4-44-44--5----7-7-7-7-------------------------------------

E---------------------------------------------------------------------
B---------------------------------------------------------------------
G--9-9-------------------------------Play This------------------------
D--9-9--6-6--7-7--99999999------------4 Times-------------------------
A--7-7--6-6--7-7--99999999--------------------------------------------
E-------4-4--5-5--77777777--------------------------------------------
 Closing
E---------------------------------------------------------------------
B---------------------------------------------------------------------
G--9-9-99--8-8-88--6-6-66--4-4-4--6--8--------------------------------
D--9-9-99--8-8-88--6-6-66--4-4-4--4--6--------------------------------
A--7-7-77--6-6-66--4-4-44--2-2-2--4--6--------------------------------
E---------------------------------------------------------------------

E---------------------------------------------------------------------
B---------------------------------------------------------------------
G--9-9-9-9h11--8-8-8-8h9--6-6-6-6h8--4-999h13-13-13-13-13-13----------
D--9-9-9-9h11--8-8-8-8h9--6-6-6-6h8--4-999h11-13-13-13-13-13----------
A--7-7-7-7h9---6-6-6-6h7--4-4-4-4h6--2-777h11-11-11-11-11-11----------
E---------------------------------------------------------------------


E---------------------------------------------------------------------
B---------------------------------------------------------------------
G--9-9-9--13-13-13-13-13--8-8-8-8-8-8-8-8-8h9-9-6-6-6-6-6-6-----------
D--9-9-9--13-13-13-13-13--8-8-8-8-8-8-8-8-8h9-9-6-6-6-6-6-6-----------
A--7-7-7--11-11-11-11-11--6-6-6-6-6-6-8-6-6h7-7-4-4-4-4-4-4-----------
E---------------------------------------------------------------------


E---------------------------------------------------------------------
B---------------------------------------------------------------------
G--9-9--11-11-11h13-11-11--13-13-13--9-9-9--13-13-13-13-13------------
D--9-9--11-11-11h13-11-11--13-13-13--9-9-9--13-13-13-13-13------------
A--7-7--9--9--9-h11-9--9---11-11-11--7-7-7--11-11-11-11-11------------
E---------------------------------------------------------------------


E---------------------------------------------------------------------
B---------------------------------------------------------------------
G--8-8-8-8-8-8-8-8h9-9--6-6-6-6-6-6-6-6--11-11-11h13--11--9-----------
D--8-8-8-8-8-8-8-8h9-9--6-6-6-6-6-6-6-6--11-11-11h13--11--9--Let Ring-
A--6-6-6-6-6-6-6-6h7-7--4-4-4-4-4-4-4-4--9--9--9-h11--9---7-----------
E---------------------------------------------------------------------

There ya go. I hope you thought it was a hell of a lot better than the other
ones. If you have any questions or comments contact me at Azrial182@hotmail.com
or IM me at TromBONER586. Thanks.
Comments