Guttermouth - Lipstick Chords & Tabs

 

Lipstick Chords & Tabs

Guttermouth Chords & Tabs

Version: 1 Type: Bass Tab 0 ratings
1 star 2 stars 3 stars 4 stars 5 stars
comments

Lipstick Bass Tab

Titre : Lipstick
Band : Guttermouth

#1
[ Tab from: http://www.guitartabs.cc/tabs/g/guttermouth/lipstick_btab.html ]
|--------------------------------------------|
|--------------------------------------------|
|-5-5-5--------------------------------------|
|--------2-2-2---3-3-3---5-5-5---------------|

#2

|--------------------------------------------|
|--------------------------------------------|
|-5-5-5--------------------------------------|
|-------2-2-2---3-3-3--5-5--4-4--5-5--4-4----|




Comments